  0
SECTION
  2
HEADER
  9
$ACADVER
  1
AC1027
  9
$ACADMAINTVER
 70
105
  9
$DWGCODEPAGE
  3
ANSI_1252
  9
$LASTSAVEDBY
  1
ezdxf
  9
$REQUIREDVERSIONS
160
0
  9
$INSBASE
 10
0.0
 20
0.0
 30
0.0
  9
$EXTMIN
 10
1e+20
 20
1e+20
 30
1e+20
  9
$EXTMAX
 10
-1e+20
 20
-1e+20
 30
-1e+20
  9
$LIMMIN
 10
0.0
 20
0.0
  9
$LIMMAX
 10
420.0
 20
297.0
  9
$ORTHOMODE
 70
0
  9
$REGENMODE
 70
1
  9
$FILLMODE
 70
1
  9
$QTEXTMODE
 70
0
  9
$MIRRTEXT
 70
1
  9
$LTSCALE
 40
1.0
  9
$ATTMODE
 70
1
  9
$TEXTSIZE
 40
2.5
  9
$TRACEWID
 40
1.0
  9
$TEXTSTYLE
  7
Standard
  9
$CLAYER
  8
0
  9
$CELTYPE
  6
ByLayer
  9
$CECOLOR
 62
256
  9
$CELTSCALE
 40
1.0
  9
$DISPSILH
 70
0
  9
$DIMSCALE
 40
1.0
  9
$DIMASZ
 40
2.5
  9
$DIMEXO
 40
0.625
  9
$DIMDLI
 40
3.75
  9
$DIMRND
 40
0.0
  9
$DIMDLE
 40
0.0
  9
$DIMEXE
 40
1.25
  9
$DIMTP
 40
0.0
  9
$DIMTM
 40
0.0
  9
$DIMTXT
 40
2.5
  9
$DIMCEN
 40
2.5
  9
$DIMTSZ
 40
0.0
  9
$DIMTOL
 70
0
  9
$DIMLIM
 70
0
  9
$DIMTIH
 70
0
  9
$DIMTOH
 70
0
  9
$DIMSE1
 70
0
  9
$DIMSE2
 70
0
  9
$DIMTAD
 70
1
  9
$DIMZIN
 70
8
  9
$DIMBLK
  1

  9
$DIMASO
 70
1
  9
$DIMSHO
 70
1
  9
$DIMPOST
  1

  9
$DIMAPOST
  1

  9
$DIMALT
 70
0
  9
$DIMALTD
 70
3
  9
$DIMALTF
 40
0.03937007874
  9
$DIMLFAC
 40
1.0
  9
$DIMTOFL
 70
1
  9
$DIMTVP
 40
0.0
  9
$DIMTIX
 70
0
  9
$DIMSOXD
 70
0
  9
$DIMSAH
 70
0
  9
$DIMBLK1
  1

  9
$DIMBLK2
  1

  9
$DIMSTYLE
  2
ISO-25
  9
$DIMCLRD
 70
0
  9
$DIMCLRE
 70
0
  9
$DIMCLRT
 70
0
  9
$DIMTFAC
 40
1.0
  9
$DIMGAP
 40
0.625
  9
$DIMJUST
 70
0
  9
$DIMSD1
 70
0
  9
$DIMSD2
 70
0
  9
$DIMTOLJ
 70
0
  9
$DIMTZIN
 70
8
  9
$DIMALTZ
 70
0
  9
$DIMALTTZ
 70
0
  9
$DIMUPT
 70
0
  9
$DIMDEC
 70
2
  9
$DIMTDEC
 70
2
  9
$DIMALTU
 70
2
  9
$DIMALTTD
 70
3
  9
$DIMTXSTY
  7
Standard
  9
$DIMAUNIT
 70
0
  9
$DIMADEC
 70
0
  9
$DIMALTRND
 40
0.0
  9
$DIMAZIN
 70
0
  9
$DIMDSEP
 70
44
  9
$DIMATFIT
 70
3
  9
$DIMFRAC
 70
0
  9
$DIMLDRBLK
  1

  9
$DIMLUNIT
 70
2
  9
$DIMLWD
 70
-2
  9
$DIMLWE
 70
-2
  9
$DIMTMOVE
 70
0
  9
$DIMFXL
 40
1.0
  9
$DIMFXLON
 70
0
  9
$DIMJOGANG
 40
0.785398163397
  9
$DIMTFILL
 70
0
  9
$DIMTFILLCLR
 70
0
  9
$DIMARCSYM
 70
0
  9
$DIMLTYPE
  6

  9
$DIMLTEX1
  6

  9
$DIMLTEX2
  6

  9
$DIMTXTDIRECTION
 70
0
  9
$LUNITS
 70
2
  9
$LUPREC
 70
4
  9
$SKETCHINC
 40
1.0
  9
$FILLETRAD
 40
10.0
  9
$AUNITS
 70
0
  9
$AUPREC
 70
2
  9
$MENU
  1
.
  9
$ELEVATION
 40
0.0
  9
$PELEVATION
 40
0.0
  9
$THICKNESS
 40
0.0
  9
$LIMCHECK
 70
0
  9
$CHAMFERA
 40
0.0
  9
$CHAMFERB
 40
0.0
  9
$CHAMFERC
 40
0.0
  9
$CHAMFERD
 40
0.0
  9
$SKPOLY
 70
0
  9
$TDCREATE
 40
2460628.7843171298
  9
$TDUCREATE
 40
2458532.153996898
  9
$TDUPDATE
 40
2460628.7843171298
  9
$TDUUPDATE
 40
2458532.1544311
  9
$TDINDWG
 40
0.0
  9
$TDUSRTIMER
 40
0.0
  9
$USRTIMER
 70
1
  9
$ANGBASE
 50
0.0
  9
$ANGDIR
 70
0
  9
$PDMODE
 70
0
  9
$PDSIZE
 40
0.0
  9
$PLINEWID
 40
0.0
  9
$SPLFRAME
 70
0
  9
$SPLINETYPE
 70
6
  9
$SPLINESEGS
 70
8
  9
$HANDSEED
  5
3C0
  9
$SURFTAB1
 70
6
  9
$SURFTAB2
 70
6
  9
$SURFTYPE
 70
6
  9
$SURFU
 70
6
  9
$SURFV
 70
6
  9
$UCSBASE
  2

  9
$UCSNAME
  2

  9
$UCSORG
 10
0.0
 20
0.0
 30
0.0
  9
$UCSXDIR
 10
1.0
 20
0.0
 30
0.0
  9
$UCSYDIR
 10
0.0
 20
1.0
 30
0.0
  9
$UCSORTHOREF
  2

  9
$UCSORTHOVIEW
 70
0
  9
$UCSORGTOP
 10
0.0
 20
0.0
 30
0.0
  9
$UCSORGBOTTOM
 10
0.0
 20
0.0
 30
0.0
  9
$UCSORGLEFT
 10
0.0
 20
0.0
 30
0.0
  9
$UCSORGRIGHT
 10
0.0
 20
0.0
 30
0.0
  9
$UCSORGFRONT
 10
0.0
 20
0.0
 30
0.0
  9
$UCSORGBACK
 10
0.0
 20
0.0
 30
0.0
  9
$PUCSBASE
  2

  9
$PUCSNAME
  2

  9
$PUCSORG
 10
0.0
 20
0.0
 30
0.0
  9
$PUCSXDIR
 10
1.0
 20
0.0
 30
0.0
  9
$PUCSYDIR
 10
0.0
 20
1.0
 30
0.0
  9
$PUCSORTHOREF
  2

  9
$PUCSORTHOVIEW
 70
0
  9
$PUCSORGTOP
 10
0.0
 20
0.0
 30
0.0
  9
$PUCSORGBOTTOM
 10
0.0
 20
0.0
 30
0.0
  9
$PUCSORGLEFT
 10
0.0
 20
0.0
 30
0.0
  9
$PUCSORGRIGHT
 10
0.0
 20
0.0
 30
0.0
  9
$PUCSORGFRONT
 10
0.0
 20
0.0
 30
0.0
  9
$PUCSORGBACK
 10
0.0
 20
0.0
 30
0.0
  9
$USERI1
 70
0
  9
$USERI2
 70
0
  9
$USERI3
 70
0
  9
$USERI4
 70
0
  9
$USERI5
 70
0
  9
$USERR1
 40
0.0
  9
$USERR2
 40
0.0
  9
$USERR3
 40
0.0
  9
$USERR4
 40
0.0
  9
$USERR5
 40
0.0
  9
$WORLDVIEW
 70
1
  9
$SHADEDGE
 70
3
  9
$SHADEDIF
 70
70
  9
$TILEMODE
 70
1
  9
$MAXACTVP
 70
64
  9
$PINSBASE
 10
0.0
 20
0.0
 30
0.0
  9
$PLIMCHECK
 70
0
  9
$PEXTMIN
 10
1e+20
 20
1e+20
 30
1e+20
  9
$PEXTMAX
 10
-1e+20
 20
-1e+20
 30
-1e+20
  9
$PLIMMIN
 10
0.0
 20
0.0
  9
$PLIMMAX
 10
420.0
 20
297.0
  9
$UNITMODE
 70
0
  9
$VISRETAIN
 70
1
  9
$PLINEGEN
 70
0
  9
$PSLTSCALE
 70
1
  9
$TREEDEPTH
 70
3020
  9
$CMLSTYLE
  2
Standard
  9
$CMLJUST
 70
0
  9
$CMLSCALE
 40
20.0
  9
$PROXYGRAPHICS
 70
1
  9
$MEASUREMENT
 70
1
  9
$CELWEIGHT
370
-1
  9
$ENDCAPS
280
0
  9
$JOINSTYLE
280
0
  9
$LWDISPLAY
290
0
  9
$INSUNITS
 70
6
  9
$HYPERLINKBASE
  1

  9
$STYLESHEET
  1

  9
$XEDIT
290
1
  9
$CEPSNTYPE
380
0
  9
$PSTYLEMODE
290
1
  9
$FINGERPRINTGUID
  2
{0FC4AA33-C970-42D8-ACDF-CB3293436083}
  9
$VERSIONGUID
  2
{E71FB789-68B1-4829-9670-B1E40FC2C5F9}
  9
$EXTNAMES
290
1
  9
$PSVPSCALE
 40
0.0
  9
$OLESTARTUP
290
0
  9
$SORTENTS
280
127
  9
$INDEXCTL
280
0
  9
$HIDETEXT
280
1
  9
$XCLIPFRAME
280
0
  9
$HALOGAP
280
0
  9
$OBSCOLOR
 70
257
  9
$OBSLTYPE
280
0
  9
$INTERSECTIONDISPLAY
280
0
  9
$INTERSECTIONCOLOR
 70
257
  9
$DIMASSOC
280
2
  9
$PROJECTNAME
  1

  9
$CAMERADISPLAY
290
0
  9
$LENSLENGTH
 40
50.0
  9
$CAMERAHEIGHT
 40
0.0
  9
$STEPSPERSEC
 40
24.0
  9
$STEPSIZE
 40
100.0
  9
$3DDWFPREC
 40
2.0
  9
$PSOLWIDTH
 40
0.005
  9
$PSOLHEIGHT
 40
0.08
  9
$LOFTANG1
 40
1.570796326795
  9
$LOFTANG2
 40
1.570796326795
  9
$LOFTMAG1
 40
0.0
  9
$LOFTMAG2
 40
0.0
  9
$LOFTPARAM
 70
7
  9
$LOFTNORMALS
280
1
  9
$LATITUDE
 40
37.795
  9
$LONGITUDE
 40
-122.394
  9
$NORTHDIRECTION
 40
0.0
  9
$TIMEZONE
 70
-8000
  9
$LIGHTGLYPHDISPLAY
280
1
  9
$TILEMODELIGHTSYNCH
280
1
  9
$CMATERIAL
347
20
  9
$SOLIDHIST
280
0
  9
$SHOWHIST
280
1
  9
$DWFFRAME
280
2
  9
$DGNFRAME
280
2
  9
$REALWORLDSCALE
290
1
  9
$INTERFERECOLOR
 62
256
  9
$CSHADOW
280
0
  9
$SHADOWPLANELOCATION
 40
0.0
  0
ENDSEC
  0
SECTION
  2
CLASSES
  0
CLASS
  1
ACDBDICTIONARYWDFLT
  2
AcDbDictionaryWithDefault
  3
ObjectDBX Classes
 90
0
 91
0
280
0
281
0
  0
CLASS
  1
SUN
  2
AcDbSun
  3
SCENEOE
 90
1153
 91
0
280
0
281
0
  0
CLASS
  1
VISUALSTYLE
  2
AcDbVisualStyle
  3
ObjectDBX Classes
 90
4095
 91
0
280
0
281
0
  0
CLASS
  1
MATERIAL
  2
AcDbMaterial
  3
ObjectDBX Classes
 90
1153
 91
0
280
0
281
0
  0
CLASS
  1
SCALE
  2
AcDbScale
  3
ObjectDBX Classes
 90
1153
 91
0
280
0
281
0
  0
CLASS
  1
TABLESTYLE
  2
AcDbTableStyle
  3
ObjectDBX Classes
 90
4095
 91
0
280
0
281
0
  0
CLASS
  1
MLEADERSTYLE
  2
AcDbMLeaderStyle
  3
ACDB_MLEADERSTYLE_CLASS
 90
4095
 91
0
280
0
281
0
  0
CLASS
  1
DICTIONARYVAR
  2
AcDbDictionaryVar
  3
ObjectDBX Classes
 90
0
 91
0
280
0
281
0
  0
CLASS
  1
CELLSTYLEMAP
  2
AcDbCellStyleMap
  3
ObjectDBX Classes
 90
1152
 91
0
280
0
281
0
  0
CLASS
  1
MENTALRAYRENDERSETTINGS
  2
AcDbMentalRayRenderSettings
  3
SCENEOE
 90
1024
 91
0
280
0
281
0
  0
CLASS
  1
ACDBDETAILVIEWSTYLE
  2
AcDbDetailViewStyle
  3
ObjectDBX Classes
 90
1025
 91
0
280
0
281
0
  0
CLASS
  1
ACDBSECTIONVIEWSTYLE
  2
AcDbSectionViewStyle
  3
ObjectDBX Classes
 90
1025
 91
0
280
0
281
0
  0
CLASS
  1
RASTERVARIABLES
  2
AcDbRasterVariables
  3
ISM
 90
0
 91
0
280
0
281
0
  0
CLASS
  1
ACDBPLACEHOLDER
  2
AcDbPlaceHolder
  3
ObjectDBX Classes
 90
0
 91
0
280
0
281
0
  0
CLASS
  1
LAYOUT
  2
AcDbLayout
  3
ObjectDBX Classes
 90
0
 91
0
280
0
281
0
  0
ENDSEC
  0
SECTION
  2
TABLES
  0
TABLE
  2
VPORT
  5
8
330
0
100
AcDbSymbolTable
 70
1
  0
VPORT
  5
23
330
8
100
AcDbSymbolTableRecord
100
AcDbViewportTableRecord
  2
*Active
 70
0
 10
0.0
 20
0.0
 11
1.0
 21
1.0
 12
0.0
 22
0.0
 13
0.0
 23
0.0
 14
0.5
 24
0.5
 15
0.5
 25
0.5
 16
0.0
 26
0.0
 36
1.0
 17
0.0
 27
0.0
 37
0.0
 40
1000.0
 41
1.34
 42
50.0
 43
0.0
 44
0.0
 50
0.0
 51
0.0
 71
0
 72
1000
 73
1
 74
3
 75
0
 76
0
 77
0
 78
0
281
0
 65
0
146
0.0
  0
ENDTAB
  0
TABLE
  2
LTYPE
  5
2
330
0
100
AcDbSymbolTable
 70
3
  0
LTYPE
  5
24
330
2
100
AcDbSymbolTableRecord
100
AcDbLinetypeTableRecord
  2
ByBlock
 70
0
  3

 72
65
 73
0
 40
0.0
  0
LTYPE
  5
25
330
2
100
AcDbSymbolTableRecord
100
AcDbLinetypeTableRecord
  2
ByLayer
 70
0
  3

 72
65
 73
0
 40
0.0
  0
LTYPE
  5
26
330
2
100
AcDbSymbolTableRecord
100
AcDbLinetypeTableRecord
  2
Continuous
 70
0
  3

 72
65
 73
0
 40
0.0
  0
ENDTAB
  0
TABLE
  2
LAYER
  5
1
330
0
100
AcDbSymbolTable
 70
10
  0
LAYER
  5
27
330
1
100
AcDbSymbolTableRecord
100
AcDbLayerTableRecord
  2
0
 70
0
 62
7
  6
Continuous
370
-3
390
13
347
21
  0
LAYER
  5
28
330
1
100
AcDbSymbolTableRecord
100
AcDbLayerTableRecord
  2
Defpoints
 70
0
 62
7
  6
Continuous
290
0
370
-3
390
13
347
21
  0
LAYER
  5
2F
330
1
100
AcDbSymbolTableRecord
100
AcDbLayerTableRecord
  2
APV - PV Tables
 70
0
 62
5
  6
Continuous
370
-3
390
13
347
21
  0
LAYER
  5
30
330
1
100
AcDbSymbolTableRecord
100
AcDbLayerTableRecord
  2
APV - PV Strings - Main
 70
0
 62
4
  6
Continuous
370
-3
390
13
347
21
  0
LAYER
  5
31
330
1
100
AcDbSymbolTableRecord
100
AcDbLayerTableRecord
  2
APV - PV Strings - Alt
 70
0
 62
3
  6
Continuous
370
-3
390
13
347
21
  0
LAYER
  5
32
330
1
100
AcDbSymbolTableRecord
100
AcDbLayerTableRecord
  2
APV - Piles
 70
0
 62
7
  6
Continuous
370
-3
390
13
347
21
  0
LAYER
  5
33
330
1
100
AcDbSymbolTableRecord
100
AcDbLayerTableRecord
  2
APV - Junction Box
 70
0
 62
1
  6
Continuous
370
-3
390
13
347
21
  0
LAYER
  5
34
330
1
100
AcDbSymbolTableRecord
100
AcDbLayerTableRecord
  2
APV - MVS
 70
0
 62
1
  6
Continuous
370
-3
390
13
347
21
  0
LAYER
  5
35
330
1
100
AcDbSymbolTableRecord
100
AcDbLayerTableRecord
  2
APV - Trenches
 70
0
 62
7
  6
Continuous
370
-3
390
13
347
21
  0
LAYER
  5
36
330
1
100
AcDbSymbolTableRecord
100
AcDbLayerTableRecord
  2
APV - Input Groups
 70
0
 62
2
  6
Continuous
370
-3
390
13
347
21
  0
ENDTAB
  0
TABLE
  2
STYLE
  5
5
330
0
100
AcDbSymbolTable
 70
1
  0
STYLE
  5
29
330
5
100
AcDbSymbolTableRecord
100
AcDbTextStyleTableRecord
  2
Standard
 70
0
 40
0.0
 41
1.0
 50
0.0
 71
0
 42
2.5
  3
txt
  4

  0
ENDTAB
  0
TABLE
  2
VIEW
  5
7
330
0
100
AcDbSymbolTable
 70
0
  0
ENDTAB
  0
TABLE
  2
UCS
  5
6
330
0
100
AcDbSymbolTable
 70
0
  0
ENDTAB
  0
TABLE
  2
APPID
  5
3
330
0
100
AcDbSymbolTable
 70
3
  0
APPID
  5
2A
330
3
100
AcDbSymbolTableRecord
100
AcDbRegAppTableRecord
  2
ACAD
 70
0
  0
APPID
  5
3BD
330
3
100
AcDbSymbolTableRecord
100
AcDbRegAppTableRecord
  2
HATCHBACKGROUNDCOLOR
 70
0
  0
APPID
  5
3BE
330
3
100
AcDbSymbolTableRecord
100
AcDbRegAppTableRecord
  2
EZDXF
 70
0
  0
ENDTAB
  0
TABLE
  2
DIMSTYLE
  5
4
330
0
100
AcDbSymbolTable
 70
1
100
AcDbDimStyleTable
  0
DIMSTYLE
105
2B
330
4
100
AcDbSymbolTableRecord
100
AcDbDimStyleTableRecord
  2
Standard
 70
0
 40
1.0
 41
2.5
 42
0.625
 43
3.75
 44
1.25
 45
0.0
 46
0.0
 47
0.0
 48
0.0
 49
2.5
140
2.5
141
2.5
142
0.0
143
0.03937007874
144
1.0
145
0.0
146
1.0
147
0.625
148
0.0
 69
0
 70
0
 71
0
 72
0
 73
0
 74
0
 75
0
 76
0
 77
1
 78
8
 79
3
170
0
171
3
172
1
173
0
174
0
175
0
176
0
177
0
178
0
179
2
271
2
272
2
273
2
274
3
275
0
276
0
277
2
278
44
279
0
280
0
281
0
282
0
283
0
284
8
285
0
286
0
288
0
289
3
290
0
371
-2
372
-2
  0
ENDTAB
  0
TABLE
  2
BLOCK_RECORD
  5
9
330
0
100
AcDbSymbolTable
 70
3
  0
BLOCK_RECORD
  5
17
330
9
100
AcDbSymbolTableRecord
100
AcDbBlockTableRecord
  2
*Model_Space
340
1A
 70
0
280
1
281
0
  0
BLOCK_RECORD
  5
1B
330
9
100
AcDbSymbolTableRecord
100
AcDbBlockTableRecord
  2
*Paper_Space
340
1E
 70
0
280
1
281
0
  0
BLOCK_RECORD
  5
37
330
9
100
AcDbSymbolTableRecord
100
AcDbBlockTableRecord
  2
table_main
340
0
 70
0
280
1
281
0
  0
ENDTAB
  0
ENDSEC
  0
SECTION
  2
BLOCKS
  0
BLOCK
  5
18
330
17
100
AcDbEntity
  8
0
100
AcDbBlockBegin
  2
*Model_Space
 70
0
 10
0.0
 20
0.0
 30
0.0
  3
*Model_Space
  1

  0
ENDBLK
  5
19
330
17
100
AcDbEntity
  8
0
100
AcDbBlockEnd
  0
BLOCK
  5
1C
330
1B
100
AcDbEntity
  8
0
100
AcDbBlockBegin
  2
*Paper_Space
 70
0
 10
0.0
 20
0.0
 30
0.0
  3
*Paper_Space
  1

  0
ENDBLK
  5
1D
330
1B
100
AcDbEntity
  8
0
100
AcDbBlockEnd
  0
BLOCK
  5
38
330
37
100
AcDbEntity
  8
0
100
AcDbBlockBegin
  2
table_main
 70
2
 10
0.0
 20
0.0
 30
0.0
  3
table_main
  1

  0
ATTDEF
  5
3A
330
37
100
AcDbEntity
  8
0
100
AcDbText
 10
0.5
 20
0.1
 30
0.0
 40
0.05
  1

 11
0.5
 21
0.1
 31
0.0
100
AcDbAttributeDefinition
  3

  2
BLOCK_ID
 70
1
  0
ATTDEF
  5
3B
330
37
100
AcDbEntity
  8
0
100
AcDbText
 10
0.5
 20
0.2
 30
0.0
 40
0.05
  1

 11
0.5
 21
0.2
 31
0.0
100
AcDbAttributeDefinition
  3

  2
ID
 70
1
  0
LWPOLYLINE
  5
3C
330
37
100
AcDbEntity
  8
APV - PV Tables
100
AcDbPolyline
 90
5
 70
0
 10
0.0
 20
0.0
 10
0.0
 20
96.91599999926984
 10
2.4649999999674037
 20
96.91599999926984
 10
2.4649999999674037
 20
0.0
 10
0.0
 20
0.0
  0
ENDBLK
  5
39
330
37
100
AcDbEntity
  8
0
100
AcDbBlockEnd
  0
ENDSEC
  0
SECTION
  2
ENTITIES
  0
INSERT
  5
3D
330
17
100
AcDbEntity
  8
APV - PV Tables
100
AcDbBlockReference
 66
1
  2
table_main
 10
672236.176088543
 20
8403241.017744567
 30
0.0
  0
ATTRIB
  5
3F
330
17
100
AcDbEntity
  8
0
100
AcDbText
 10
672236.676088543
 20
8403241.117744567
 30
0.0
 40
0.05
  1
0
 11
672236.676088543
 21
8403241.117744567
 31
0.0
100
AcDbAttribute
  2
BLOCK_ID
 70
1
  0
ATTRIB
  5
40
330
17
100
AcDbEntity
  8
0
100
AcDbText
 10
672236.676088543
 20
8403241.217744567
 30
0.0
 40
0.05
  1
TR0-T0
 11
672236.676088543
 21
8403241.217744567
 31
0.0
100
AcDbAttribute
  2
ID
 70
1
  0
SEQEND
  5
3E
330
3D
100
AcDbEntity
  8
APV - PV Tables
  0
INSERT
  5
41
330
17
100
AcDbEntity
  8
APV - PV Tables
100
AcDbBlockReference
 66
1
  2
table_main
 10
672241.176088543
 20
8403241.017744567
 30
0.0
  0
ATTRIB
  5
43
330
17
100
AcDbEntity
  8
0
100
AcDbText
 10
672241.676088543
 20
8403241.117744567
 30
0.0
 40
0.05
  1
0
 11
672241.676088543
 21
8403241.117744567
 31
0.0
100
AcDbAttribute
  2
BLOCK_ID
 70
1
  0
ATTRIB
  5
44
330
17
100
AcDbEntity
  8
0
100
AcDbText
 10
672241.676088543
 20
8403241.217744567
 30
0.0
 40
0.05
  1
TR1-T0
 11
672241.676088543
 21
8403241.217744567
 31
0.0
100
AcDbAttribute
  2
ID
 70
1
  0
SEQEND
  5
42
330
41
100
AcDbEntity
  8
APV - PV Tables
  0
INSERT
  5
45
330
17
100
AcDbEntity
  8
APV - PV Tables
100
AcDbBlockReference
 66
1
  2
table_main
 10
672246.176088543
 20
8403241.017744567
 30
0.0
  0
ATTRIB
  5
47
330
17
100
AcDbEntity
  8
0
100
AcDbText
 10
672246.676088543
 20
8403241.117744567
 30
0.0
 40
0.05
  1
0
 11
672246.676088543
 21
8403241.117744567
 31
0.0
100
AcDbAttribute
  2
BLOCK_ID
 70
1
  0
ATTRIB
  5
48
330
17
100
AcDbEntity
  8
0
100
AcDbText
 10
672246.676088543
 20
8403241.217744567
 30
0.0
 40
0.05
  1
TR2-T0
 11
672246.676088543
 21
8403241.217744567
 31
0.0
100
AcDbAttribute
  2
ID
 70
1
  0
SEQEND
  5
46
330
45
100
AcDbEntity
  8
APV - PV Tables
  0
INSERT
  5
49
330
17
100
AcDbEntity
  8
APV - PV Tables
100
AcDbBlockReference
 66
1
  2
table_main
 10
672251.176088543
 20
8403241.017744567
 30
0.0
  0
ATTRIB
  5
4B
330
17
100
AcDbEntity
  8
0
100
AcDbText
 10
672251.676088543
 20
8403241.117744567
 30
0.0
 40
0.05
  1
0
 11
672251.676088543
 21
8403241.117744567
 31
0.0
100
AcDbAttribute
  2
BLOCK_ID
 70
1
  0
ATTRIB
  5
4C
330
17
100
AcDbEntity
  8
0
100
AcDbText
 10
672251.676088543
 20
8403241.217744567
 30
0.0
 40
0.05
  1
TR3-T0
 11
672251.676088543
 21
8403241.217744567
 31
0.0
100
AcDbAttribute
  2
ID
 70
1
  0
SEQEND
  5
4A
330
49
100
AcDbEntity
  8
APV - PV Tables
  0
INSERT
  5
4D
330
17
100
AcDbEntity
  8
APV - PV Tables
100
AcDbBlockReference
 66
1
  2
table_main
 10
672256.176088543
 20
8403241.017744567
 30
0.0
  0
ATTRIB
  5
4F
330
17
100
AcDbEntity
  8
0
100
AcDbText
 10
672256.676088543
 20
8403241.117744567
 30
0.0
 40
0.05
  1
0
 11
672256.676088543
 21
8403241.117744567
 31
0.0
100
AcDbAttribute
  2
BLOCK_ID
 70
1
  0
ATTRIB
  5
50
330
17
100
AcDbEntity
  8
0
100
AcDbText
 10
672256.676088543
 20
8403241.217744567
 30
0.0
 40
0.05
  1
TR4-T0
 11
672256.676088543
 21
8403241.217744567
 31
0.0
100
AcDbAttribute
  2
ID
 70
1
  0
SEQEND
  5
4E
330
4D
100
AcDbEntity
  8
APV - PV Tables
  0
INSERT
  5
51
330
17
100
AcDbEntity
  8
APV - PV Tables
100
AcDbBlockReference
 66
1
  2
table_main
 10
672261.176088543
 20
8403241.017744567
 30
0.0
  0
ATTRIB
  5
53
330
17
100
AcDbEntity
  8
0
100
AcDbText
 10
672261.676088543
 20
8403241.117744567
 30
0.0
 40
0.05
  1
0
 11
672261.676088543
 21
8403241.117744567
 31
0.0
100
AcDbAttribute
  2
BLOCK_ID
 70
1
  0
ATTRIB
  5
54
330
17
100
AcDbEntity
  8
0
100
AcDbText
 10
672261.676088543
 20
8403241.217744567
 30
0.0
 40
0.05
  1
TR5-T0
 11
672261.676088543
 21
8403241.217744567
 31
0.0
100
AcDbAttribute
  2
ID
 70
1
  0
SEQEND
  5
52
330
51
100
AcDbEntity
  8
APV - PV Tables
  0
INSERT
  5
55
330
17
100
AcDbEntity
  8
APV - PV Tables
100
AcDbBlockReference
 66
1
  2
table_main
 10
672266.176088543
 20
8403241.017744567
 30
0.0
  0
ATTRIB
  5
57
330
17
100
AcDbEntity
  8
0
100
AcDbText
 10
672266.676088543
 20
8403241.117744567
 30
0.0
 40
0.05
  1
0
 11
672266.676088543
 21
8403241.117744567
 31
0.0
100
AcDbAttribute
  2
BLOCK_ID
 70
1
  0
ATTRIB
  5
58
330
17
100
AcDbEntity
  8
0
100
AcDbText
 10
672266.676088543
 20
8403241.217744567
 30
0.0
 40
0.05
  1
TR6-T0
 11
672266.676088543
 21
8403241.217744567
 31
0.0
100
AcDbAttribute
  2
ID
 70
1
  0
SEQEND
  5
56
330
55
100
AcDbEntity
  8
APV - PV Tables
  0
INSERT
  5
59
330
17
100
AcDbEntity
  8
APV - PV Tables
100
AcDbBlockReference
 66
1
  2
table_main
 10
672271.176088543
 20
8403241.017744567
 30
0.0
  0
ATTRIB
  5
5B
330
17
100
AcDbEntity
  8
0
100
AcDbText
 10
672271.676088543
 20
8403241.117744567
 30
0.0
 40
0.05
  1
0
 11
672271.676088543
 21
8403241.117744567
 31
0.0
100
AcDbAttribute
  2
BLOCK_ID
 70
1
  0
ATTRIB
  5
5C
330
17
100
AcDbEntity
  8
0
100
AcDbText
 10
672271.676088543
 20
8403241.217744567
 30
0.0
 40
0.05
  1
TR7-T0
 11
672271.676088543
 21
8403241.217744567
 31
0.0
100
AcDbAttribute
  2
ID
 70
1
  0
SEQEND
  5
5A
330
59
100
AcDbEntity
  8
APV - PV Tables
  0
INSERT
  5
5D
330
17
100
AcDbEntity
  8
APV - PV Tables
100
AcDbBlockReference
 66
1
  2
table_main
 10
672276.176088543
 20
8403241.017744567
 30
0.0
  0
ATTRIB
  5
5F
330
17
100
AcDbEntity
  8
0
100
AcDbText
 10
672276.676088543
 20
8403241.117744567
 30
0.0
 40
0.05
  1
0
 11
672276.676088543
 21
8403241.117744567
 31
0.0
100
AcDbAttribute
  2
BLOCK_ID
 70
1
  0
ATTRIB
  5
60
330
17
100
AcDbEntity
  8
0
100
AcDbText
 10
672276.676088543
 20
8403241.217744567
 30
0.0
 40
0.05
  1
TR8-T0
 11
672276.676088543
 21
8403241.217744567
 31
0.0
100
AcDbAttribute
  2
ID
 70
1
  0
SEQEND
  5
5E
330
5D
100
AcDbEntity
  8
APV - PV Tables
  0
INSERT
  5
61
330
17
100
AcDbEntity
  8
APV - PV Tables
100
AcDbBlockReference
 66
1
  2
table_main
 10
672271.176088543
 20
8403342.933744568
 30
0.0
  0
ATTRIB
  5
63
330
17
100
AcDbEntity
  8
0
100
AcDbText
 10
672271.676088543
 20
8403343.033744568
 30
0.0
 40
0.05
  1
0
 11
672271.676088543
 21
8403343.033744568
 31
0.0
100
AcDbAttribute
  2
BLOCK_ID
 70
1
  0
ATTRIB
  5
64
330
17
100
AcDbEntity
  8
0
100
AcDbText
 10
672271.676088543
 20
8403343.133744568
 30
0.0
 40
0.05
  1
TR9-T0
 11
672271.676088543
 21
8403343.133744568
 31
0.0
100
AcDbAttribute
  2
ID
 70
1
  0
SEQEND
  5
62
330
61
100
AcDbEntity
  8
APV - PV Tables
  0
INSERT
  5
65
330
17
100
AcDbEntity
  8
APV - PV Tables
100
AcDbBlockReference
 66
1
  2
table_main
 10
672276.176088543
 20
8403342.933744568
 30
0.0
  0
ATTRIB
  5
67
330
17
100
AcDbEntity
  8
0
100
AcDbText
 10
672276.676088543
 20
8403343.033744568
 30
0.0
 40
0.05
  1
0
 11
672276.676088543
 21
8403343.033744568
 31
0.0
100
AcDbAttribute
  2
BLOCK_ID
 70
1
  0
ATTRIB
  5
68
330
17
100
AcDbEntity
  8
0
100
AcDbText
 10
672276.676088543
 20
8403343.133744568
 30
0.0
 40
0.05
  1
TR10-T0
 11
672276.676088543
 21
8403343.133744568
 31
0.0
100
AcDbAttribute
  2
ID
 70
1
  0
SEQEND
  5
66
330
65
100
AcDbEntity
  8
APV - PV Tables
  0
INSERT
  5
69
330
17
100
AcDbEntity
  8
APV - PV Tables
100
AcDbBlockReference
 66
1
  2
table_main
 10
672281.176088543
 20
8403342.933744568
 30
0.0
  0
ATTRIB
  5
6B
330
17
100
AcDbEntity
  8
0
100
AcDbText
 10
672281.676088543
 20
8403343.033744568
 30
0.0
 40
0.05
  1
0
 11
672281.676088543
 21
8403343.033744568
 31
0.0
100
AcDbAttribute
  2
BLOCK_ID
 70
1
  0
ATTRIB
  5
6C
330
17
100
AcDbEntity
  8
0
100
AcDbText
 10
672281.676088543
 20
8403343.133744568
 30
0.0
 40
0.05
  1
TR11-T0
 11
672281.676088543
 21
8403343.133744568
 31
0.0
100
AcDbAttribute
  2
ID
 70
1
  0
SEQEND
  5
6A
330
69
100
AcDbEntity
  8
APV - PV Tables
  0
INSERT
  5
6D
330
17
100
AcDbEntity
  8
APV - PV Tables
100
AcDbBlockReference
 66
1
  2
table_main
 10
672286.176088543
 20
8403342.933744568
 30
0.0
  0
ATTRIB
  5
6F
330
17
100
AcDbEntity
  8
0
100
AcDbText
 10
672286.676088543
 20
8403343.033744568
 30
0.0
 40
0.05
  1
0
 11
672286.676088543
 21
8403343.033744568
 31
0.0
100
AcDbAttribute
  2
BLOCK_ID
 70
1
  0
ATTRIB
  5
70
330
17
100
AcDbEntity
  8
0
100
AcDbText
 10
672286.676088543
 20
8403343.133744568
 30
0.0
 40
0.05
  1
TR12-T0
 11
672286.676088543
 21
8403343.133744568
 31
0.0
100
AcDbAttribute
  2
ID
 70
1
  0
SEQEND
  5
6E
330
6D
100
AcDbEntity
  8
APV - PV Tables
  0
INSERT
  5
71
330
17
100
AcDbEntity
  8
APV - PV Tables
100
AcDbBlockReference
 66
1
  2
table_main
 10
672291.176088543
 20
8403342.933744568
 30
0.0
  0
ATTRIB
  5
73
330
17
100
AcDbEntity
  8
0
100
AcDbText
 10
672291.676088543
 20
8403343.033744568
 30
0.0
 40
0.05
  1
0
 11
672291.676088543
 21
8403343.033744568
 31
0.0
100
AcDbAttribute
  2
BLOCK_ID
 70
1
  0
ATTRIB
  5
74
330
17
100
AcDbEntity
  8
0
100
AcDbText
 10
672291.676088543
 20
8403343.133744568
 30
0.0
 40
0.05
  1
TR13-T0
 11
672291.676088543
 21
8403343.133744568
 31
0.0
100
AcDbAttribute
  2
ID
 70
1
  0
SEQEND
  5
72
330
71
100
AcDbEntity
  8
APV - PV Tables
  0
INSERT
  5
75
330
17
100
AcDbEntity
  8
APV - PV Tables
100
AcDbBlockReference
 66
1
  2
table_main
 10
672296.176088543
 20
8403342.933744568
 30
0.0
  0
ATTRIB
  5
77
330
17
100
AcDbEntity
  8
0
100
AcDbText
 10
672296.676088543
 20
8403343.033744568
 30
0.0
 40
0.05
  1
0
 11
672296.676088543
 21
8403343.033744568
 31
0.0
100
AcDbAttribute
  2
BLOCK_ID
 70
1
  0
ATTRIB
  5
78
330
17
100
AcDbEntity
  8
0
100
AcDbText
 10
672296.676088543
 20
8403343.133744568
 30
0.0
 40
0.05
  1
TR14-T0
 11
672296.676088543
 21
8403343.133744568
 31
0.0
100
AcDbAttribute
  2
ID
 70
1
  0
SEQEND
  5
76
330
75
100
AcDbEntity
  8
APV - PV Tables
  0
INSERT
  5
79
330
17
100
AcDbEntity
  8
APV - PV Tables
100
AcDbBlockReference
 66
1
  2
table_main
 10
672301.176088543
 20
8403342.933744568
 30
0.0
  0
ATTRIB
  5
7B
330
17
100
AcDbEntity
  8
0
100
AcDbText
 10
672301.676088543
 20
8403343.033744568
 30
0.0
 40
0.05
  1
0
 11
672301.676088543
 21
8403343.033744568
 31
0.0
100
AcDbAttribute
  2
BLOCK_ID
 70
1
  0
ATTRIB
  5
7C
330
17
100
AcDbEntity
  8
0
100
AcDbText
 10
672301.676088543
 20
8403343.133744568
 30
0.0
 40
0.05
  1
TR15-T0
 11
672301.676088543
 21
8403343.133744568
 31
0.0
100
AcDbAttribute
  2
ID
 70
1
  0
SEQEND
  5
7A
330
79
100
AcDbEntity
  8
APV - PV Tables
  0
INSERT
  5
7D
330
17
100
AcDbEntity
  8
APV - PV Tables
100
AcDbBlockReference
 66
1
  2
table_main
 10
672306.176088543
 20
8403342.933744568
 30
0.0
  0
ATTRIB
  5
7F
330
17
100
AcDbEntity
  8
0
100
AcDbText
 10
672306.676088543
 20
8403343.033744568
 30
0.0
 40
0.05
  1
0
 11
672306.676088543
 21
8403343.033744568
 31
0.0
100
AcDbAttribute
  2
BLOCK_ID
 70
1
  0
ATTRIB
  5
80
330
17
100
AcDbEntity
  8
0
100
AcDbText
 10
672306.676088543
 20
8403343.133744568
 30
0.0
 40
0.05
  1
TR16-T0
 11
672306.676088543
 21
8403343.133744568
 31
0.0
100
AcDbAttribute
  2
ID
 70
1
  0
SEQEND
  5
7E
330
7D
100
AcDbEntity
  8
APV - PV Tables
  0
INSERT
  5
81
330
17
100
AcDbEntity
  8
APV - PV Tables
100
AcDbBlockReference
 66
1
  2
table_main
 10
672311.176088543
 20
8403342.933744568
 30
0.0
  0
ATTRIB
  5
83
330
17
100
AcDbEntity
  8
0
100
AcDbText
 10
672311.676088543
 20
8403343.033744568
 30
0.0
 40
0.05
  1
0
 11
672311.676088543
 21
8403343.033744568
 31
0.0
100
AcDbAttribute
  2
BLOCK_ID
 70
1
  0
ATTRIB
  5
84
330
17
100
AcDbEntity
  8
0
100
AcDbText
 10
672311.676088543
 20
8403343.133744568
 30
0.0
 40
0.05
  1
TR17-T0
 11
672311.676088543
 21
8403343.133744568
 31
0.0
100
AcDbAttribute
  2
ID
 70
1
  0
SEQEND
  5
82
330
81
100
AcDbEntity
  8
APV - PV Tables
  0
INSERT
  5
85
330
17
100
AcDbEntity
  8
APV - PV Tables
100
AcDbBlockReference
 66
1
  2
table_main
 10
672316.176088543
 20
8403342.933744568
 30
0.0
  0
ATTRIB
  5
87
330
17
100
AcDbEntity
  8
0
100
AcDbText
 10
672316.676088543
 20
8403343.033744568
 30
0.0
 40
0.05
  1
0
 11
672316.676088543
 21
8403343.033744568
 31
0.0
100
AcDbAttribute
  2
BLOCK_ID
 70
1
  0
ATTRIB
  5
88
330
17
100
AcDbEntity
  8
0
100
AcDbText
 10
672316.676088543
 20
8403343.133744568
 30
0.0
 40
0.05
  1
TR18-T0
 11
672316.676088543
 21
8403343.133744568
 31
0.0
100
AcDbAttribute
  2
ID
 70
1
  0
SEQEND
  5
86
330
85
100
AcDbEntity
  8
APV - PV Tables
  0
INSERT
  5
89
330
17
100
AcDbEntity
  8
APV - PV Tables
100
AcDbBlockReference
 66
1
  2
table_main
 10
672321.176088543
 20
8403342.933744568
 30
0.0
  0
ATTRIB
  5
8B
330
17
100
AcDbEntity
  8
0
100
AcDbText
 10
672321.676088543
 20
8403343.033744568
 30
0.0
 40
0.05
  1
0
 11
672321.676088543
 21
8403343.033744568
 31
0.0
100
AcDbAttribute
  2
BLOCK_ID
 70
1
  0
ATTRIB
  5
8C
330
17
100
AcDbEntity
  8
0
100
AcDbText
 10
672321.676088543
 20
8403343.133744568
 30
0.0
 40
0.05
  1
TR19-T0
 11
672321.676088543
 21
8403343.133744568
 31
0.0
100
AcDbAttribute
  2
ID
 70
1
  0
SEQEND
  5
8A
330
89
100
AcDbEntity
  8
APV - PV Tables
  0
INSERT
  5
8D
330
17
100
AcDbEntity
  8
APV - PV Tables
100
AcDbBlockReference
 66
1
  2
table_main
 10
672326.176088543
 20
8403342.933744568
 30
0.0
  0
ATTRIB
  5
8F
330
17
100
AcDbEntity
  8
0
100
AcDbText
 10
672326.676088543
 20
8403343.033744568
 30
0.0
 40
0.05
  1
0
 11
672326.676088543
 21
8403343.033744568
 31
0.0
100
AcDbAttribute
  2
BLOCK_ID
 70
1
  0
ATTRIB
  5
90
330
17
100
AcDbEntity
  8
0
100
AcDbText
 10
672326.676088543
 20
8403343.133744568
 30
0.0
 40
0.05
  1
TR20-T0
 11
672326.676088543
 21
8403343.133744568
 31
0.0
100
AcDbAttribute
  2
ID
 70
1
  0
SEQEND
  5
8E
330
8D
100
AcDbEntity
  8
APV - PV Tables
  0
INSERT
  5
91
330
17
100
AcDbEntity
  8
APV - PV Tables
100
AcDbBlockReference
 66
1
  2
table_main
 10
672331.176088543
 20
8403342.933744568
 30
0.0
  0
ATTRIB
  5
93
330
17
100
AcDbEntity
  8
0
100
AcDbText
 10
672331.676088543
 20
8403343.033744568
 30
0.0
 40
0.05
  1
0
 11
672331.676088543
 21
8403343.033744568
 31
0.0
100
AcDbAttribute
  2
BLOCK_ID
 70
1
  0
ATTRIB
  5
94
330
17
100
AcDbEntity
  8
0
100
AcDbText
 10
672331.676088543
 20
8403343.133744568
 30
0.0
 40
0.05
  1
TR21-T0
 11
672331.676088543
 21
8403343.133744568
 31
0.0
100
AcDbAttribute
  2
ID
 70
1
  0
SEQEND
  5
92
330
91
100
AcDbEntity
  8
APV - PV Tables
  0
INSERT
  5
95
330
17
100
AcDbEntity
  8
APV - PV Tables
100
AcDbBlockReference
 66
1
  2
table_main
 10
672336.176088543
 20
8403342.933744568
 30
0.0
  0
ATTRIB
  5
97
330
17
100
AcDbEntity
  8
0
100
AcDbText
 10
672336.676088543
 20
8403343.033744568
 30
0.0
 40
0.05
  1
0
 11
672336.676088543
 21
8403343.033744568
 31
0.0
100
AcDbAttribute
  2
BLOCK_ID
 70
1
  0
ATTRIB
  5
98
330
17
100
AcDbEntity
  8
0
100
AcDbText
 10
672336.676088543
 20
8403343.133744568
 30
0.0
 40
0.05
  1
TR22-T0
 11
672336.676088543
 21
8403343.133744568
 31
0.0
100
AcDbAttribute
  2
ID
 70
1
  0
SEQEND
  5
96
330
95
100
AcDbEntity
  8
APV - PV Tables
  0
INSERT
  5
99
330
17
100
AcDbEntity
  8
APV - PV Tables
100
AcDbBlockReference
 66
1
  2
table_main
 10
672341.176088543
 20
8403342.933744568
 30
0.0
  0
ATTRIB
  5
9B
330
17
100
AcDbEntity
  8
0
100
AcDbText
 10
672341.676088543
 20
8403343.033744568
 30
0.0
 40
0.05
  1
0
 11
672341.676088543
 21
8403343.033744568
 31
0.0
100
AcDbAttribute
  2
BLOCK_ID
 70
1
  0
ATTRIB
  5
9C
330
17
100
AcDbEntity
  8
0
100
AcDbText
 10
672341.676088543
 20
8403343.133744568
 30
0.0
 40
0.05
  1
TR23-T0
 11
672341.676088543
 21
8403343.133744568
 31
0.0
100
AcDbAttribute
  2
ID
 70
1
  0
SEQEND
  5
9A
330
99
100
AcDbEntity
  8
APV - PV Tables
  0
INSERT
  5
9D
330
17
100
AcDbEntity
  8
APV - PV Tables
100
AcDbBlockReference
 66
1
  2
table_main
 10
672346.176088543
 20
8403342.933744568
 30
0.0
  0
ATTRIB
  5
9F
330
17
100
AcDbEntity
  8
0
100
AcDbText
 10
672346.676088543
 20
8403343.033744568
 30
0.0
 40
0.05
  1
0
 11
672346.676088543
 21
8403343.033744568
 31
0.0
100
AcDbAttribute
  2
BLOCK_ID
 70
1
  0
ATTRIB
  5
A0
330
17
100
AcDbEntity
  8
0
100
AcDbText
 10
672346.676088543
 20
8403343.133744568
 30
0.0
 40
0.05
  1
TR24-T0
 11
672346.676088543
 21
8403343.133744568
 31
0.0
100
AcDbAttribute
  2
ID
 70
1
  0
SEQEND
  5
9E
330
9D
100
AcDbEntity
  8
APV - PV Tables
  0
INSERT
  5
A1
330
17
100
AcDbEntity
  8
APV - PV Tables
100
AcDbBlockReference
 66
1
  2
table_main
 10
672351.176088543
 20
8403342.933744568
 30
0.0
  0
ATTRIB
  5
A3
330
17
100
AcDbEntity
  8
0
100
AcDbText
 10
672351.676088543
 20
8403343.033744568
 30
0.0
 40
0.05
  1
0
 11
672351.676088543
 21
8403343.033744568
 31
0.0
100
AcDbAttribute
  2
BLOCK_ID
 70
1
  0
ATTRIB
  5
A4
330
17
100
AcDbEntity
  8
0
100
AcDbText
 10
672351.676088543
 20
8403343.133744568
 30
0.0
 40
0.05
  1
TR25-T0
 11
672351.676088543
 21
8403343.133744568
 31
0.0
100
AcDbAttribute
  2
ID
 70
1
  0
SEQEND
  5
A2
330
A1
100
AcDbEntity
  8
APV - PV Tables
  0
INSERT
  5
A5
330
17
100
AcDbEntity
  8
APV - PV Tables
100
AcDbBlockReference
 66
1
  2
table_main
 10
672356.176088543
 20
8403342.933744568
 30
0.0
  0
ATTRIB
  5
A7
330
17
100
AcDbEntity
  8
0
100
AcDbText
 10
672356.676088543
 20
8403343.033744568
 30
0.0
 40
0.05
  1
0
 11
672356.676088543
 21
8403343.033744568
 31
0.0
100
AcDbAttribute
  2
BLOCK_ID
 70
1
  0
ATTRIB
  5
A8
330
17
100
AcDbEntity
  8
0
100
AcDbText
 10
672356.676088543
 20
8403343.133744568
 30
0.0
 40
0.05
  1
TR26-T0
 11
672356.676088543
 21
8403343.133744568
 31
0.0
100
AcDbAttribute
  2
ID
 70
1
  0
SEQEND
  5
A6
330
A5
100
AcDbEntity
  8
APV - PV Tables
  0
INSERT
  5
A9
330
17
100
AcDbEntity
  8
APV - PV Tables
100
AcDbBlockReference
 66
1
  2
table_main
 10
672361.176088543
 20
8403342.933744568
 30
0.0
  0
ATTRIB
  5
AB
330
17
100
AcDbEntity
  8
0
100
AcDbText
 10
672361.676088543
 20
8403343.033744568
 30
0.0
 40
0.05
  1
0
 11
672361.676088543
 21
8403343.033744568
 31
0.0
100
AcDbAttribute
  2
BLOCK_ID
 70
1
  0
ATTRIB
  5
AC
330
17
100
AcDbEntity
  8
0
100
AcDbText
 10
672361.676088543
 20
8403343.133744568
 30
0.0
 40
0.05
  1
TR27-T0
 11
672361.676088543
 21
8403343.133744568
 31
0.0
100
AcDbAttribute
  2
ID
 70
1
  0
SEQEND
  5
AA
330
A9
100
AcDbEntity
  8
APV - PV Tables
  0
INSERT
  5
AD
330
17
100
AcDbEntity
  8
APV - PV Tables
100
AcDbBlockReference
 66
1
  2
table_main
 10
672366.176088543
 20
8403342.933744568
 30
0.0
  0
ATTRIB
  5
AF
330
17
100
AcDbEntity
  8
0
100
AcDbText
 10
672366.676088543
 20
8403343.033744568
 30
0.0
 40
0.05
  1
0
 11
672366.676088543
 21
8403343.033744568
 31
0.0
100
AcDbAttribute
  2
BLOCK_ID
 70
1
  0
ATTRIB
  5
B0
330
17
100
AcDbEntity
  8
0
100
AcDbText
 10
672366.676088543
 20
8403343.133744568
 30
0.0
 40
0.05
  1
TR28-T0
 11
672366.676088543
 21
8403343.133744568
 31
0.0
100
AcDbAttribute
  2
ID
 70
1
  0
SEQEND
  5
AE
330
AD
100
AcDbEntity
  8
APV - PV Tables
  0
INSERT
  5
B1
330
17
100
AcDbEntity
  8
APV - PV Tables
100
AcDbBlockReference
 66
1
  2
table_main
 10
672371.176088543
 20
8403342.933744568
 30
0.0
  0
ATTRIB
  5
B3
330
17
100
AcDbEntity
  8
0
100
AcDbText
 10
672371.676088543
 20
8403343.033744568
 30
0.0
 40
0.05
  1
0
 11
672371.676088543
 21
8403343.033744568
 31
0.0
100
AcDbAttribute
  2
BLOCK_ID
 70
1
  0
ATTRIB
  5
B4
330
17
100
AcDbEntity
  8
0
100
AcDbText
 10
672371.676088543
 20
8403343.133744568
 30
0.0
 40
0.05
  1
TR29-T0
 11
672371.676088543
 21
8403343.133744568
 31
0.0
100
AcDbAttribute
  2
ID
 70
1
  0
SEQEND
  5
B2
330
B1
100
AcDbEntity
  8
APV - PV Tables
  0
INSERT
  5
B5
330
17
100
AcDbEntity
  8
APV - PV Tables
100
AcDbBlockReference
 66
1
  2
table_main
 10
672376.176088543
 20
8403342.933744568
 30
0.0
  0
ATTRIB
  5
B7
330
17
100
AcDbEntity
  8
0
100
AcDbText
 10
672376.676088543
 20
8403343.033744568
 30
0.0
 40
0.05
  1
0
 11
672376.676088543
 21
8403343.033744568
 31
0.0
100
AcDbAttribute
  2
BLOCK_ID
 70
1
  0
ATTRIB
  5
B8
330
17
100
AcDbEntity
  8
0
100
AcDbText
 10
672376.676088543
 20
8403343.133744568
 30
0.0
 40
0.05
  1
TR30-T0
 11
672376.676088543
 21
8403343.133744568
 31
0.0
100
AcDbAttribute
  2
ID
 70
1
  0
SEQEND
  5
B6
330
B5
100
AcDbEntity
  8
APV - PV Tables
  0
INSERT
  5
B9
330
17
100
AcDbEntity
  8
APV - PV Tables
100
AcDbBlockReference
 66
1
  2
table_main
 10
672381.176088543
 20
8403342.933744568
 30
0.0
  0
ATTRIB
  5
BB
330
17
100
AcDbEntity
  8
0
100
AcDbText
 10
672381.676088543
 20
8403343.033744568
 30
0.0
 40
0.05
  1
0
 11
672381.676088543
 21
8403343.033744568
 31
0.0
100
AcDbAttribute
  2
BLOCK_ID
 70
1
  0
ATTRIB
  5
BC
330
17
100
AcDbEntity
  8
0
100
AcDbText
 10
672381.676088543
 20
8403343.133744568
 30
0.0
 40
0.05
  1
TR31-T0
 11
672381.676088543
 21
8403343.133744568
 31
0.0
100
AcDbAttribute
  2
ID
 70
1
  0
SEQEND
  5
BA
330
B9
100
AcDbEntity
  8
APV - PV Tables
  0
INSERT
  5
BD
330
17
100
AcDbEntity
  8
APV - PV Tables
100
AcDbBlockReference
 66
1
  2
table_main
 10
672386.176088543
 20
8403342.933744568
 30
0.0
  0
ATTRIB
  5
BF
330
17
100
AcDbEntity
  8
0
100
AcDbText
 10
672386.676088543
 20
8403343.033744568
 30
0.0
 40
0.05
  1
0
 11
672386.676088543
 21
8403343.033744568
 31
0.0
100
AcDbAttribute
  2
BLOCK_ID
 70
1
  0
ATTRIB
  5
C0
330
17
100
AcDbEntity
  8
0
100
AcDbText
 10
672386.676088543
 20
8403343.133744568
 30
0.0
 40
0.05
  1
TR32-T0
 11
672386.676088543
 21
8403343.133744568
 31
0.0
100
AcDbAttribute
  2
ID
 70
1
  0
SEQEND
  5
BE
330
BD
100
AcDbEntity
  8
APV - PV Tables
  0
INSERT
  5
C1
330
17
100
AcDbEntity
  8
APV - PV Tables
100
AcDbBlockReference
 66
1
  2
table_main
 10
672391.176088543
 20
8403342.933744568
 30
0.0
  0
ATTRIB
  5
C3
330
17
100
AcDbEntity
  8
0
100
AcDbText
 10
672391.676088543
 20
8403343.033744568
 30
0.0
 40
0.05
  1
0
 11
672391.676088543
 21
8403343.033744568
 31
0.0
100
AcDbAttribute
  2
BLOCK_ID
 70
1
  0
ATTRIB
  5
C4
330
17
100
AcDbEntity
  8
0
100
AcDbText
 10
672391.676088543
 20
8403343.133744568
 30
0.0
 40
0.05
  1
TR33-T0
 11
672391.676088543
 21
8403343.133744568
 31
0.0
100
AcDbAttribute
  2
ID
 70
1
  0
SEQEND
  5
C2
330
C1
100
AcDbEntity
  8
APV - PV Tables
  0
INSERT
  5
C5
330
17
100
AcDbEntity
  8
APV - PV Tables
100
AcDbBlockReference
 66
1
  2
table_main
 10
672396.176088543
 20
8403342.933744568
 30
0.0
  0
ATTRIB
  5
C7
330
17
100
AcDbEntity
  8
0
100
AcDbText
 10
672396.676088543
 20
8403343.033744568
 30
0.0
 40
0.05
  1
0
 11
672396.676088543
 21
8403343.033744568
 31
0.0
100
AcDbAttribute
  2
BLOCK_ID
 70
1
  0
ATTRIB
  5
C8
330
17
100
AcDbEntity
  8
0
100
AcDbText
 10
672396.676088543
 20
8403343.133744568
 30
0.0
 40
0.05
  1
TR34-T0
 11
672396.676088543
 21
8403343.133744568
 31
0.0
100
AcDbAttribute
  2
ID
 70
1
  0
SEQEND
  5
C6
330
C5
100
AcDbEntity
  8
APV - PV Tables
  0
INSERT
  5
C9
330
17
100
AcDbEntity
  8
APV - PV Tables
100
AcDbBlockReference
 66
1
  2
table_main
 10
672401.176088543
 20
8403342.933744568
 30
0.0
  0
ATTRIB
  5
CB
330
17
100
AcDbEntity
  8
0
100
AcDbText
 10
672401.676088543
 20
8403343.033744568
 30
0.0
 40
0.05
  1
0
 11
672401.676088543
 21
8403343.033744568
 31
0.0
100
AcDbAttribute
  2
BLOCK_ID
 70
1
  0
ATTRIB
  5
CC
330
17
100
AcDbEntity
  8
0
100
AcDbText
 10
672401.676088543
 20
8403343.133744568
 30
0.0
 40
0.05
  1
TR35-T0
 11
672401.676088543
 21
8403343.133744568
 31
0.0
100
AcDbAttribute
  2
ID
 70
1
  0
SEQEND
  5
CA
330
C9
100
AcDbEntity
  8
APV - PV Tables
  0
INSERT
  5
CD
330
17
100
AcDbEntity
  8
APV - PV Tables
100
AcDbBlockReference
 66
1
  2
table_main
 10
672406.176088543
 20
8403342.933744568
 30
0.0
  0
ATTRIB
  5
CF
330
17
100
AcDbEntity
  8
0
100
AcDbText
 10
672406.676088543
 20
8403343.033744568
 30
0.0
 40
0.05
  1
0
 11
672406.676088543
 21
8403343.033744568
 31
0.0
100
AcDbAttribute
  2
BLOCK_ID
 70
1
  0
ATTRIB
  5
D0
330
17
100
AcDbEntity
  8
0
100
AcDbText
 10
672406.676088543
 20
8403343.133744568
 30
0.0
 40
0.05
  1
TR36-T0
 11
672406.676088543
 21
8403343.133744568
 31
0.0
100
AcDbAttribute
  2
ID
 70
1
  0
SEQEND
  5
CE
330
CD
100
AcDbEntity
  8
APV - PV Tables
  0
INSERT
  5
D1
330
17
100
AcDbEntity
  8
APV - PV Tables
100
AcDbBlockReference
 66
1
  2
table_main
 10
672411.176088543
 20
8403342.933744568
 30
0.0
  0
ATTRIB
  5
D3
330
17
100
AcDbEntity
  8
0
100
AcDbText
 10
672411.676088543
 20
8403343.033744568
 30
0.0
 40
0.05
  1
0
 11
672411.676088543
 21
8403343.033744568
 31
0.0
100
AcDbAttribute
  2
BLOCK_ID
 70
1
  0
ATTRIB
  5
D4
330
17
100
AcDbEntity
  8
0
100
AcDbText
 10
672411.676088543
 20
8403343.133744568
 30
0.0
 40
0.05
  1
TR37-T0
 11
672411.676088543
 21
8403343.133744568
 31
0.0
100
AcDbAttribute
  2
ID
 70
1
  0
SEQEND
  5
D2
330
D1
100
AcDbEntity
  8
APV - PV Tables
  0
INSERT
  5
D5
330
17
100
AcDbEntity
  8
APV - PV Tables
100
AcDbBlockReference
 66
1
  2
table_main
 10
672416.176088543
 20
8403342.933744568
 30
0.0
  0
ATTRIB
  5
D7
330
17
100
AcDbEntity
  8
0
100
AcDbText
 10
672416.676088543
 20
8403343.033744568
 30
0.0
 40
0.05
  1
0
 11
672416.676088543
 21
8403343.033744568
 31
0.0
100
AcDbAttribute
  2
BLOCK_ID
 70
1
  0
ATTRIB
  5
D8
330
17
100
AcDbEntity
  8
0
100
AcDbText
 10
672416.676088543
 20
8403343.133744568
 30
0.0
 40
0.05
  1
TR38-T0
 11
672416.676088543
 21
8403343.133744568
 31
0.0
100
AcDbAttribute
  2
ID
 70
1
  0
SEQEND
  5
D6
330
D5
100
AcDbEntity
  8
APV - PV Tables
  0
INSERT
  5
D9
330
17
100
AcDbEntity
  8
APV - PV Tables
100
AcDbBlockReference
 66
1
  2
table_main
 10
672421.176088543
 20
8403342.933744568
 30
0.0
  0
ATTRIB
  5
DB
330
17
100
AcDbEntity
  8
0
100
AcDbText
 10
672421.676088543
 20
8403343.033744568
 30
0.0
 40
0.05
  1
0
 11
672421.676088543
 21
8403343.033744568
 31
0.0
100
AcDbAttribute
  2
BLOCK_ID
 70
1
  0
ATTRIB
  5
DC
330
17
100
AcDbEntity
  8
0
100
AcDbText
 10
672421.676088543
 20
8403343.133744568
 30
0.0
 40
0.05
  1
TR39-T0
 11
672421.676088543
 21
8403343.133744568
 31
0.0
100
AcDbAttribute
  2
ID
 70
1
  0
SEQEND
  5
DA
330
D9
100
AcDbEntity
  8
APV - PV Tables
  0
INSERT
  5
DD
330
17
100
AcDbEntity
  8
APV - PV Tables
100
AcDbBlockReference
 66
1
  2
table_main
 10
672426.176088543
 20
8403342.933744568
 30
0.0
  0
ATTRIB
  5
DF
330
17
100
AcDbEntity
  8
0
100
AcDbText
 10
672426.676088543
 20
8403343.033744568
 30
0.0
 40
0.05
  1
0
 11
672426.676088543
 21
8403343.033744568
 31
0.0
100
AcDbAttribute
  2
BLOCK_ID
 70
1
  0
ATTRIB
  5
E0
330
17
100
AcDbEntity
  8
0
100
AcDbText
 10
672426.676088543
 20
8403343.133744568
 30
0.0
 40
0.05
  1
TR40-T0
 11
672426.676088543
 21
8403343.133744568
 31
0.0
100
AcDbAttribute
  2
ID
 70
1
  0
SEQEND
  5
DE
330
DD
100
AcDbEntity
  8
APV - PV Tables
  0
INSERT
  5
E1
330
17
100
AcDbEntity
  8
APV - PV Tables
100
AcDbBlockReference
 66
1
  2
table_main
 10
672431.176088543
 20
8403342.933744568
 30
0.0
  0
ATTRIB
  5
E3
330
17
100
AcDbEntity
  8
0
100
AcDbText
 10
672431.676088543
 20
8403343.033744568
 30
0.0
 40
0.05
  1
0
 11
672431.676088543
 21
8403343.033744568
 31
0.0
100
AcDbAttribute
  2
BLOCK_ID
 70
1
  0
ATTRIB
  5
E4
330
17
100
AcDbEntity
  8
0
100
AcDbText
 10
672431.676088543
 20
8403343.133744568
 30
0.0
 40
0.05
  1
TR41-T0
 11
672431.676088543
 21
8403343.133744568
 31
0.0
100
AcDbAttribute
  2
ID
 70
1
  0
SEQEND
  5
E2
330
E1
100
AcDbEntity
  8
APV - PV Tables
  0
INSERT
  5
E5
330
17
100
AcDbEntity
  8
APV - PV Tables
100
AcDbBlockReference
 66
1
  2
table_main
 10
672436.176088543
 20
8403342.933744568
 30
0.0
  0
ATTRIB
  5
E7
330
17
100
AcDbEntity
  8
0
100
AcDbText
 10
672436.676088543
 20
8403343.033744568
 30
0.0
 40
0.05
  1
0
 11
672436.676088543
 21
8403343.033744568
 31
0.0
100
AcDbAttribute
  2
BLOCK_ID
 70
1
  0
ATTRIB
  5
E8
330
17
100
AcDbEntity
  8
0
100
AcDbText
 10
672436.676088543
 20
8403343.133744568
 30
0.0
 40
0.05
  1
TR42-T0
 11
672436.676088543
 21
8403343.133744568
 31
0.0
100
AcDbAttribute
  2
ID
 70
1
  0
SEQEND
  5
E6
330
E5
100
AcDbEntity
  8
APV - PV Tables
  0
INSERT
  5
E9
330
17
100
AcDbEntity
  8
APV - PV Tables
100
AcDbBlockReference
 66
1
  2
table_main
 10
672441.176088543
 20
8403342.933744568
 30
0.0
  0
ATTRIB
  5
EB
330
17
100
AcDbEntity
  8
0
100
AcDbText
 10
672441.676088543
 20
8403343.033744568
 30
0.0
 40
0.05
  1
0
 11
672441.676088543
 21
8403343.033744568
 31
0.0
100
AcDbAttribute
  2
BLOCK_ID
 70
1
  0
ATTRIB
  5
EC
330
17
100
AcDbEntity
  8
0
100
AcDbText
 10
672441.676088543
 20
8403343.133744568
 30
0.0
 40
0.05
  1
TR43-T0
 11
672441.676088543
 21
8403343.133744568
 31
0.0
100
AcDbAttribute
  2
ID
 70
1
  0
SEQEND
  5
EA
330
E9
100
AcDbEntity
  8
APV - PV Tables
  0
INSERT
  5
ED
330
17
100
AcDbEntity
  8
APV - PV Tables
100
AcDbBlockReference
 66
1
  2
table_main
 10
672446.176088543
 20
8403342.933744568
 30
0.0
  0
ATTRIB
  5
EF
330
17
100
AcDbEntity
  8
0
100
AcDbText
 10
672446.676088543
 20
8403343.033744568
 30
0.0
 40
0.05
  1
0
 11
672446.676088543
 21
8403343.033744568
 31
0.0
100
AcDbAttribute
  2
BLOCK_ID
 70
1
  0
ATTRIB
  5
F0
330
17
100
AcDbEntity
  8
0
100
AcDbText
 10
672446.676088543
 20
8403343.133744568
 30
0.0
 40
0.05
  1
TR44-T0
 11
672446.676088543
 21
8403343.133744568
 31
0.0
100
AcDbAttribute
  2
ID
 70
1
  0
SEQEND
  5
EE
330
ED
100
AcDbEntity
  8
APV - PV Tables
  0
INSERT
  5
F1
330
17
100
AcDbEntity
  8
APV - PV Tables
100
AcDbBlockReference
 66
1
  2
table_main
 10
672311.176088543
 20
8403459.849744568
 30
0.0
  0
ATTRIB
  5
F3
330
17
100
AcDbEntity
  8
0
100
AcDbText
 10
672311.676088543
 20
8403459.949744567
 30
0.0
 40
0.05
  1
0
 11
672311.676088543
 21
8403459.949744567
 31
0.0
100
AcDbAttribute
  2
BLOCK_ID
 70
1
  0
ATTRIB
  5
F4
330
17
100
AcDbEntity
  8
0
100
AcDbText
 10
672311.676088543
 20
8403460.049744567
 30
0.0
 40
0.05
  1
TR45-T0
 11
672311.676088543
 21
8403460.049744567
 31
0.0
100
AcDbAttribute
  2
ID
 70
1
  0
SEQEND
  5
F2
330
F1
100
AcDbEntity
  8
APV - PV Tables
  0
INSERT
  5
F5
330
17
100
AcDbEntity
  8
APV - PV Tables
100
AcDbBlockReference
 66
1
  2
table_main
 10
672316.176088543
 20
8403459.849744568
 30
0.0
  0
ATTRIB
  5
F7
330
17
100
AcDbEntity
  8
0
100
AcDbText
 10
672316.676088543
 20
8403459.949744567
 30
0.0
 40
0.05
  1
0
 11
672316.676088543
 21
8403459.949744567
 31
0.0
100
AcDbAttribute
  2
BLOCK_ID
 70
1
  0
ATTRIB
  5
F8
330
17
100
AcDbEntity
  8
0
100
AcDbText
 10
672316.676088543
 20
8403460.049744567
 30
0.0
 40
0.05
  1
TR46-T0
 11
672316.676088543
 21
8403460.049744567
 31
0.0
100
AcDbAttribute
  2
ID
 70
1
  0
SEQEND
  5
F6
330
F5
100
AcDbEntity
  8
APV - PV Tables
  0
INSERT
  5
F9
330
17
100
AcDbEntity
  8
APV - PV Tables
100
AcDbBlockReference
 66
1
  2
table_main
 10
672321.176088543
 20
8403459.849744568
 30
0.0
  0
ATTRIB
  5
FB
330
17
100
AcDbEntity
  8
0
100
AcDbText
 10
672321.676088543
 20
8403459.949744567
 30
0.0
 40
0.05
  1
0
 11
672321.676088543
 21
8403459.949744567
 31
0.0
100
AcDbAttribute
  2
BLOCK_ID
 70
1
  0
ATTRIB
  5
FC
330
17
100
AcDbEntity
  8
0
100
AcDbText
 10
672321.676088543
 20
8403460.049744567
 30
0.0
 40
0.05
  1
TR47-T0
 11
672321.676088543
 21
8403460.049744567
 31
0.0
100
AcDbAttribute
  2
ID
 70
1
  0
SEQEND
  5
FA
330
F9
100
AcDbEntity
  8
APV - PV Tables
  0
INSERT
  5
FD
330
17
100
AcDbEntity
  8
APV - PV Tables
100
AcDbBlockReference
 66
1
  2
table_main
 10
672326.176088543
 20
8403459.849744568
 30
0.0
  0
ATTRIB
  5
FF
330
17
100
AcDbEntity
  8
0
100
AcDbText
 10
672326.676088543
 20
8403459.949744567
 30
0.0
 40
0.05
  1
0
 11
672326.676088543
 21
8403459.949744567
 31
0.0
100
AcDbAttribute
  2
BLOCK_ID
 70
1
  0
ATTRIB
  5
100
330
17
100
AcDbEntity
  8
0
100
AcDbText
 10
672326.676088543
 20
8403460.049744567
 30
0.0
 40
0.05
  1
TR48-T0
 11
672326.676088543
 21
8403460.049744567
 31
0.0
100
AcDbAttribute
  2
ID
 70
1
  0
SEQEND
  5
FE
330
FD
100
AcDbEntity
  8
APV - PV Tables
  0
INSERT
  5
101
330
17
100
AcDbEntity
  8
APV - PV Tables
100
AcDbBlockReference
 66
1
  2
table_main
 10
672331.176088543
 20
8403459.849744568
 30
0.0
  0
ATTRIB
  5
103
330
17
100
AcDbEntity
  8
0
100
AcDbText
 10
672331.676088543
 20
8403459.949744567
 30
0.0
 40
0.05
  1
0
 11
672331.676088543
 21
8403459.949744567
 31
0.0
100
AcDbAttribute
  2
BLOCK_ID
 70
1
  0
ATTRIB
  5
104
330
17
100
AcDbEntity
  8
0
100
AcDbText
 10
672331.676088543
 20
8403460.049744567
 30
0.0
 40
0.05
  1
TR49-T0
 11
672331.676088543
 21
8403460.049744567
 31
0.0
100
AcDbAttribute
  2
ID
 70
1
  0
SEQEND
  5
102
330
101
100
AcDbEntity
  8
APV - PV Tables
  0
INSERT
  5
105
330
17
100
AcDbEntity
  8
APV - PV Tables
100
AcDbBlockReference
 66
1
  2
table_main
 10
672336.176088543
 20
8403459.849744568
 30
0.0
  0
ATTRIB
  5
107
330
17
100
AcDbEntity
  8
0
100
AcDbText
 10
672336.676088543
 20
8403459.949744567
 30
0.0
 40
0.05
  1
0
 11
672336.676088543
 21
8403459.949744567
 31
0.0
100
AcDbAttribute
  2
BLOCK_ID
 70
1
  0
ATTRIB
  5
108
330
17
100
AcDbEntity
  8
0
100
AcDbText
 10
672336.676088543
 20
8403460.049744567
 30
0.0
 40
0.05
  1
TR50-T0
 11
672336.676088543
 21
8403460.049744567
 31
0.0
100
AcDbAttribute
  2
ID
 70
1
  0
SEQEND
  5
106
330
105
100
AcDbEntity
  8
APV - PV Tables
  0
INSERT
  5
109
330
17
100
AcDbEntity
  8
APV - PV Tables
100
AcDbBlockReference
 66
1
  2
table_main
 10
672341.176088543
 20
8403459.849744568
 30
0.0
  0
ATTRIB
  5
10B
330
17
100
AcDbEntity
  8
0
100
AcDbText
 10
672341.676088543
 20
8403459.949744567
 30
0.0
 40
0.05
  1
0
 11
672341.676088543
 21
8403459.949744567
 31
0.0
100
AcDbAttribute
  2
BLOCK_ID
 70
1
  0
ATTRIB
  5
10C
330
17
100
AcDbEntity
  8
0
100
AcDbText
 10
672341.676088543
 20
8403460.049744567
 30
0.0
 40
0.05
  1
TR51-T0
 11
672341.676088543
 21
8403460.049744567
 31
0.0
100
AcDbAttribute
  2
ID
 70
1
  0
SEQEND
  5
10A
330
109
100
AcDbEntity
  8
APV - PV Tables
  0
INSERT
  5
10D
330
17
100
AcDbEntity
  8
APV - PV Tables
100
AcDbBlockReference
 66
1
  2
table_main
 10
672346.176088543
 20
8403459.849744568
 30
0.0
  0
ATTRIB
  5
10F
330
17
100
AcDbEntity
  8
0
100
AcDbText
 10
672346.676088543
 20
8403459.949744567
 30
0.0
 40
0.05
  1
0
 11
672346.676088543
 21
8403459.949744567
 31
0.0
100
AcDbAttribute
  2
BLOCK_ID
 70
1
  0
ATTRIB
  5
110
330
17
100
AcDbEntity
  8
0
100
AcDbText
 10
672346.676088543
 20
8403460.049744567
 30
0.0
 40
0.05
  1
TR52-T0
 11
672346.676088543
 21
8403460.049744567
 31
0.0
100
AcDbAttribute
  2
ID
 70
1
  0
SEQEND
  5
10E
330
10D
100
AcDbEntity
  8
APV - PV Tables
  0
INSERT
  5
111
330
17
100
AcDbEntity
  8
APV - PV Tables
100
AcDbBlockReference
 66
1
  2
table_main
 10
672351.176088543
 20
8403459.849744568
 30
0.0
  0
ATTRIB
  5
113
330
17
100
AcDbEntity
  8
0
100
AcDbText
 10
672351.676088543
 20
8403459.949744567
 30
0.0
 40
0.05
  1
0
 11
672351.676088543
 21
8403459.949744567
 31
0.0
100
AcDbAttribute
  2
BLOCK_ID
 70
1
  0
ATTRIB
  5
114
330
17
100
AcDbEntity
  8
0
100
AcDbText
 10
672351.676088543
 20
8403460.049744567
 30
0.0
 40
0.05
  1
TR53-T0
 11
672351.676088543
 21
8403460.049744567
 31
0.0
100
AcDbAttribute
  2
ID
 70
1
  0
SEQEND
  5
112
330
111
100
AcDbEntity
  8
APV - PV Tables
  0
INSERT
  5
115
330
17
100
AcDbEntity
  8
APV - PV Tables
100
AcDbBlockReference
 66
1
  2
table_main
 10
672356.176088543
 20
8403459.849744568
 30
0.0
  0
ATTRIB
  5
117
330
17
100
AcDbEntity
  8
0
100
AcDbText
 10
672356.676088543
 20
8403459.949744567
 30
0.0
 40
0.05
  1
0
 11
672356.676088543
 21
8403459.949744567
 31
0.0
100
AcDbAttribute
  2
BLOCK_ID
 70
1
  0
ATTRIB
  5
118
330
17
100
AcDbEntity
  8
0
100
AcDbText
 10
672356.676088543
 20
8403460.049744567
 30
0.0
 40
0.05
  1
TR54-T0
 11
672356.676088543
 21
8403460.049744567
 31
0.0
100
AcDbAttribute
  2
ID
 70
1
  0
SEQEND
  5
116
330
115
100
AcDbEntity
  8
APV - PV Tables
  0
INSERT
  5
119
330
17
100
AcDbEntity
  8
APV - PV Tables
100
AcDbBlockReference
 66
1
  2
table_main
 10
672361.176088543
 20
8403459.849744568
 30
0.0
  0
ATTRIB
  5
11B
330
17
100
AcDbEntity
  8
0
100
AcDbText
 10
672361.676088543
 20
8403459.949744567
 30
0.0
 40
0.05
  1
0
 11
672361.676088543
 21
8403459.949744567
 31
0.0
100
AcDbAttribute
  2
BLOCK_ID
 70
1
  0
ATTRIB
  5
11C
330
17
100
AcDbEntity
  8
0
100
AcDbText
 10
672361.676088543
 20
8403460.049744567
 30
0.0
 40
0.05
  1
TR55-T0
 11
672361.676088543
 21
8403460.049744567
 31
0.0
100
AcDbAttribute
  2
ID
 70
1
  0
SEQEND
  5
11A
330
119
100
AcDbEntity
  8
APV - PV Tables
  0
INSERT
  5
11D
330
17
100
AcDbEntity
  8
APV - PV Tables
100
AcDbBlockReference
 66
1
  2
table_main
 10
672366.176088543
 20
8403459.849744568
 30
0.0
  0
ATTRIB
  5
11F
330
17
100
AcDbEntity
  8
0
100
AcDbText
 10
672366.676088543
 20
8403459.949744567
 30
0.0
 40
0.05
  1
0
 11
672366.676088543
 21
8403459.949744567
 31
0.0
100
AcDbAttribute
  2
BLOCK_ID
 70
1
  0
ATTRIB
  5
120
330
17
100
AcDbEntity
  8
0
100
AcDbText
 10
672366.676088543
 20
8403460.049744567
 30
0.0
 40
0.05
  1
TR56-T0
 11
672366.676088543
 21
8403460.049744567
 31
0.0
100
AcDbAttribute
  2
ID
 70
1
  0
SEQEND
  5
11E
330
11D
100
AcDbEntity
  8
APV - PV Tables
  0
INSERT
  5
121
330
17
100
AcDbEntity
  8
APV - PV Tables
100
AcDbBlockReference
 66
1
  2
table_main
 10
672371.176088543
 20
8403459.849744568
 30
0.0
  0
ATTRIB
  5
123
330
17
100
AcDbEntity
  8
0
100
AcDbText
 10
672371.676088543
 20
8403459.949744567
 30
0.0
 40
0.05
  1
0
 11
672371.676088543
 21
8403459.949744567
 31
0.0
100
AcDbAttribute
  2
BLOCK_ID
 70
1
  0
ATTRIB
  5
124
330
17
100
AcDbEntity
  8
0
100
AcDbText
 10
672371.676088543
 20
8403460.049744567
 30
0.0
 40
0.05
  1
TR57-T0
 11
672371.676088543
 21
8403460.049744567
 31
0.0
100
AcDbAttribute
  2
ID
 70
1
  0
SEQEND
  5
122
330
121
100
AcDbEntity
  8
APV - PV Tables
  0
INSERT
  5
125
330
17
100
AcDbEntity
  8
APV - PV Tables
100
AcDbBlockReference
 66
1
  2
table_main
 10
672376.176088543
 20
8403459.849744568
 30
0.0
  0
ATTRIB
  5
127
330
17
100
AcDbEntity
  8
0
100
AcDbText
 10
672376.676088543
 20
8403459.949744567
 30
0.0
 40
0.05
  1
0
 11
672376.676088543
 21
8403459.949744567
 31
0.0
100
AcDbAttribute
  2
BLOCK_ID
 70
1
  0
ATTRIB
  5
128
330
17
100
AcDbEntity
  8
0
100
AcDbText
 10
672376.676088543
 20
8403460.049744567
 30
0.0
 40
0.05
  1
TR58-T0
 11
672376.676088543
 21
8403460.049744567
 31
0.0
100
AcDbAttribute
  2
ID
 70
1
  0
SEQEND
  5
126
330
125
100
AcDbEntity
  8
APV - PV Tables
  0
INSERT
  5
129
330
17
100
AcDbEntity
  8
APV - PV Tables
100
AcDbBlockReference
 66
1
  2
table_main
 10
672381.176088543
 20
8403459.849744568
 30
0.0
  0
ATTRIB
  5
12B
330
17
100
AcDbEntity
  8
0
100
AcDbText
 10
672381.676088543
 20
8403459.949744567
 30
0.0
 40
0.05
  1
0
 11
672381.676088543
 21
8403459.949744567
 31
0.0
100
AcDbAttribute
  2
BLOCK_ID
 70
1
  0
ATTRIB
  5
12C
330
17
100
AcDbEntity
  8
0
100
AcDbText
 10
672381.676088543
 20
8403460.049744567
 30
0.0
 40
0.05
  1
TR59-T0
 11
672381.676088543
 21
8403460.049744567
 31
0.0
100
AcDbAttribute
  2
ID
 70
1
  0
SEQEND
  5
12A
330
129
100
AcDbEntity
  8
APV - PV Tables
  0
INSERT
  5
12D
330
17
100
AcDbEntity
  8
APV - PV Tables
100
AcDbBlockReference
 66
1
  2
table_main
 10
672386.176088543
 20
8403459.849744568
 30
0.0
  0
ATTRIB
  5
12F
330
17
100
AcDbEntity
  8
0
100
AcDbText
 10
672386.676088543
 20
8403459.949744567
 30
0.0
 40
0.05
  1
0
 11
672386.676088543
 21
8403459.949744567
 31
0.0
100
AcDbAttribute
  2
BLOCK_ID
 70
1
  0
ATTRIB
  5
130
330
17
100
AcDbEntity
  8
0
100
AcDbText
 10
672386.676088543
 20
8403460.049744567
 30
0.0
 40
0.05
  1
TR60-T0
 11
672386.676088543
 21
8403460.049744567
 31
0.0
100
AcDbAttribute
  2
ID
 70
1
  0
SEQEND
  5
12E
330
12D
100
AcDbEntity
  8
APV - PV Tables
  0
INSERT
  5
131
330
17
100
AcDbEntity
  8
APV - PV Tables
100
AcDbBlockReference
 66
1
  2
table_main
 10
672391.176088543
 20
8403459.849744568
 30
0.0
  0
ATTRIB
  5
133
330
17
100
AcDbEntity
  8
0
100
AcDbText
 10
672391.676088543
 20
8403459.949744567
 30
0.0
 40
0.05
  1
0
 11
672391.676088543
 21
8403459.949744567
 31
0.0
100
AcDbAttribute
  2
BLOCK_ID
 70
1
  0
ATTRIB
  5
134
330
17
100
AcDbEntity
  8
0
100
AcDbText
 10
672391.676088543
 20
8403460.049744567
 30
0.0
 40
0.05
  1
TR61-T0
 11
672391.676088543
 21
8403460.049744567
 31
0.0
100
AcDbAttribute
  2
ID
 70
1
  0
SEQEND
  5
132
330
131
100
AcDbEntity
  8
APV - PV Tables
  0
INSERT
  5
135
330
17
100
AcDbEntity
  8
APV - PV Tables
100
AcDbBlockReference
 66
1
  2
table_main
 10
672396.176088543
 20
8403459.849744568
 30
0.0
  0
ATTRIB
  5
137
330
17
100
AcDbEntity
  8
0
100
AcDbText
 10
672396.676088543
 20
8403459.949744567
 30
0.0
 40
0.05
  1
0
 11
672396.676088543
 21
8403459.949744567
 31
0.0
100
AcDbAttribute
  2
BLOCK_ID
 70
1
  0
ATTRIB
  5
138
330
17
100
AcDbEntity
  8
0
100
AcDbText
 10
672396.676088543
 20
8403460.049744567
 30
0.0
 40
0.05
  1
TR62-T0
 11
672396.676088543
 21
8403460.049744567
 31
0.0
100
AcDbAttribute
  2
ID
 70
1
  0
SEQEND
  5
136
330
135
100
AcDbEntity
  8
APV - PV Tables
  0
INSERT
  5
139
330
17
100
AcDbEntity
  8
APV - PV Tables
100
AcDbBlockReference
 66
1
  2
table_main
 10
672401.176088543
 20
8403459.849744568
 30
0.0
  0
ATTRIB
  5
13B
330
17
100
AcDbEntity
  8
0
100
AcDbText
 10
672401.676088543
 20
8403459.949744567
 30
0.0
 40
0.05
  1
0
 11
672401.676088543
 21
8403459.949744567
 31
0.0
100
AcDbAttribute
  2
BLOCK_ID
 70
1
  0
ATTRIB
  5
13C
330
17
100
AcDbEntity
  8
0
100
AcDbText
 10
672401.676088543
 20
8403460.049744567
 30
0.0
 40
0.05
  1
TR63-T0
 11
672401.676088543
 21
8403460.049744567
 31
0.0
100
AcDbAttribute
  2
ID
 70
1
  0
SEQEND
  5
13A
330
139
100
AcDbEntity
  8
APV - PV Tables
  0
INSERT
  5
13D
330
17
100
AcDbEntity
  8
APV - PV Tables
100
AcDbBlockReference
 66
1
  2
table_main
 10
672406.176088543
 20
8403459.849744568
 30
0.0
  0
ATTRIB
  5
13F
330
17
100
AcDbEntity
  8
0
100
AcDbText
 10
672406.676088543
 20
8403459.949744567
 30
0.0
 40
0.05
  1
0
 11
672406.676088543
 21
8403459.949744567
 31
0.0
100
AcDbAttribute
  2
BLOCK_ID
 70
1
  0
ATTRIB
  5
140
330
17
100
AcDbEntity
  8
0
100
AcDbText
 10
672406.676088543
 20
8403460.049744567
 30
0.0
 40
0.05
  1
TR64-T0
 11
672406.676088543
 21
8403460.049744567
 31
0.0
100
AcDbAttribute
  2
ID
 70
1
  0
SEQEND
  5
13E
330
13D
100
AcDbEntity
  8
APV - PV Tables
  0
INSERT
  5
141
330
17
100
AcDbEntity
  8
APV - PV Tables
100
AcDbBlockReference
 66
1
  2
table_main
 10
672411.176088543
 20
8403459.849744568
 30
0.0
  0
ATTRIB
  5
143
330
17
100
AcDbEntity
  8
0
100
AcDbText
 10
672411.676088543
 20
8403459.949744567
 30
0.0
 40
0.05
  1
0
 11
672411.676088543
 21
8403459.949744567
 31
0.0
100
AcDbAttribute
  2
BLOCK_ID
 70
1
  0
ATTRIB
  5
144
330
17
100
AcDbEntity
  8
0
100
AcDbText
 10
672411.676088543
 20
8403460.049744567
 30
0.0
 40
0.05
  1
TR65-T0
 11
672411.676088543
 21
8403460.049744567
 31
0.0
100
AcDbAttribute
  2
ID
 70
1
  0
SEQEND
  5
142
330
141
100
AcDbEntity
  8
APV - PV Tables
  0
INSERT
  5
145
330
17
100
AcDbEntity
  8
APV - PV Tables
100
AcDbBlockReference
 66
1
  2
table_main
 10
672416.176088543
 20
8403459.849744568
 30
0.0
  0
ATTRIB
  5
147
330
17
100
AcDbEntity
  8
0
100
AcDbText
 10
672416.676088543
 20
8403459.949744567
 30
0.0
 40
0.05
  1
0
 11
672416.676088543
 21
8403459.949744567
 31
0.0
100
AcDbAttribute
  2
BLOCK_ID
 70
1
  0
ATTRIB
  5
148
330
17
100
AcDbEntity
  8
0
100
AcDbText
 10
672416.676088543
 20
8403460.049744567
 30
0.0
 40
0.05
  1
TR66-T0
 11
672416.676088543
 21
8403460.049744567
 31
0.0
100
AcDbAttribute
  2
ID
 70
1
  0
SEQEND
  5
146
330
145
100
AcDbEntity
  8
APV - PV Tables
  0
INSERT
  5
149
330
17
100
AcDbEntity
  8
APV - PV Tables
100
AcDbBlockReference
 66
1
  2
table_main
 10
672421.176088543
 20
8403459.849744568
 30
0.0
  0
ATTRIB
  5
14B
330
17
100
AcDbEntity
  8
0
100
AcDbText
 10
672421.676088543
 20
8403459.949744567
 30
0.0
 40
0.05
  1
0
 11
672421.676088543
 21
8403459.949744567
 31
0.0
100
AcDbAttribute
  2
BLOCK_ID
 70
1
  0
ATTRIB
  5
14C
330
17
100
AcDbEntity
  8
0
100
AcDbText
 10
672421.676088543
 20
8403460.049744567
 30
0.0
 40
0.05
  1
TR67-T0
 11
672421.676088543
 21
8403460.049744567
 31
0.0
100
AcDbAttribute
  2
ID
 70
1
  0
SEQEND
  5
14A
330
149
100
AcDbEntity
  8
APV - PV Tables
  0
INSERT
  5
14D
330
17
100
AcDbEntity
  8
APV - PV Tables
100
AcDbBlockReference
 66
1
  2
table_main
 10
672426.176088543
 20
8403459.849744568
 30
0.0
  0
ATTRIB
  5
14F
330
17
100
AcDbEntity
  8
0
100
AcDbText
 10
672426.676088543
 20
8403459.949744567
 30
0.0
 40
0.05
  1
0
 11
672426.676088543
 21
8403459.949744567
 31
0.0
100
AcDbAttribute
  2
BLOCK_ID
 70
1
  0
ATTRIB
  5
150
330
17
100
AcDbEntity
  8
0
100
AcDbText
 10
672426.676088543
 20
8403460.049744567
 30
0.0
 40
0.05
  1
TR68-T0
 11
672426.676088543
 21
8403460.049744567
 31
0.0
100
AcDbAttribute
  2
ID
 70
1
  0
SEQEND
  5
14E
330
14D
100
AcDbEntity
  8
APV - PV Tables
  0
INSERT
  5
151
330
17
100
AcDbEntity
  8
APV - PV Tables
100
AcDbBlockReference
 66
1
  2
table_main
 10
672431.176088543
 20
8403459.849744568
 30
0.0
  0
ATTRIB
  5
153
330
17
100
AcDbEntity
  8
0
100
AcDbText
 10
672431.676088543
 20
8403459.949744567
 30
0.0
 40
0.05
  1
0
 11
672431.676088543
 21
8403459.949744567
 31
0.0
100
AcDbAttribute
  2
BLOCK_ID
 70
1
  0
ATTRIB
  5
154
330
17
100
AcDbEntity
  8
0
100
AcDbText
 10
672431.676088543
 20
8403460.049744567
 30
0.0
 40
0.05
  1
TR69-T0
 11
672431.676088543
 21
8403460.049744567
 31
0.0
100
AcDbAttribute
  2
ID
 70
1
  0
SEQEND
  5
152
330
151
100
AcDbEntity
  8
APV - PV Tables
  0
INSERT
  5
155
330
17
100
AcDbEntity
  8
APV - PV Tables
100
AcDbBlockReference
 66
1
  2
table_main
 10
672436.176088543
 20
8403459.849744568
 30
0.0
  0
ATTRIB
  5
157
330
17
100
AcDbEntity
  8
0
100
AcDbText
 10
672436.676088543
 20
8403459.949744567
 30
0.0
 40
0.05
  1
0
 11
672436.676088543
 21
8403459.949744567
 31
0.0
100
AcDbAttribute
  2
BLOCK_ID
 70
1
  0
ATTRIB
  5
158
330
17
100
AcDbEntity
  8
0
100
AcDbText
 10
672436.676088543
 20
8403460.049744567
 30
0.0
 40
0.05
  1
TR70-T0
 11
672436.676088543
 21
8403460.049744567
 31
0.0
100
AcDbAttribute
  2
ID
 70
1
  0
SEQEND
  5
156
330
155
100
AcDbEntity
  8
APV - PV Tables
  0
INSERT
  5
159
330
17
100
AcDbEntity
  8
APV - PV Tables
100
AcDbBlockReference
 66
1
  2
table_main
 10
672441.176088543
 20
8403459.849744568
 30
0.0
  0
ATTRIB
  5
15B
330
17
100
AcDbEntity
  8
0
100
AcDbText
 10
672441.676088543
 20
8403459.949744567
 30
0.0
 40
0.05
  1
0
 11
672441.676088543
 21
8403459.949744567
 31
0.0
100
AcDbAttribute
  2
BLOCK_ID
 70
1
  0
ATTRIB
  5
15C
330
17
100
AcDbEntity
  8
0
100
AcDbText
 10
672441.676088543
 20
8403460.049744567
 30
0.0
 40
0.05
  1
TR71-T0
 11
672441.676088543
 21
8403460.049744567
 31
0.0
100
AcDbAttribute
  2
ID
 70
1
  0
SEQEND
  5
15A
330
159
100
AcDbEntity
  8
APV - PV Tables
  0
INSERT
  5
15D
330
17
100
AcDbEntity
  8
APV - PV Tables
100
AcDbBlockReference
 66
1
  2
table_main
 10
672446.176088543
 20
8403459.849744568
 30
0.0
  0
ATTRIB
  5
15F
330
17
100
AcDbEntity
  8
0
100
AcDbText
 10
672446.676088543
 20
8403459.949744567
 30
0.0
 40
0.05
  1
0
 11
672446.676088543
 21
8403459.949744567
 31
0.0
100
AcDbAttribute
  2
BLOCK_ID
 70
1
  0
ATTRIB
  5
160
330
17
100
AcDbEntity
  8
0
100
AcDbText
 10
672446.676088543
 20
8403460.049744567
 30
0.0
 40
0.05
  1
TR72-T0
 11
672446.676088543
 21
8403460.049744567
 31
0.0
100
AcDbAttribute
  2
ID
 70
1
  0
SEQEND
  5
15E
330
15D
100
AcDbEntity
  8
APV - PV Tables
  0
INSERT
  5
161
330
17
100
AcDbEntity
  8
APV - PV Tables
100
AcDbBlockReference
 66
1
  2
table_main
 10
672451.176088543
 20
8403459.849744568
 30
0.0
  0
ATTRIB
  5
163
330
17
100
AcDbEntity
  8
0
100
AcDbText
 10
672451.676088543
 20
8403459.949744567
 30
0.0
 40
0.05
  1
0
 11
672451.676088543
 21
8403459.949744567
 31
0.0
100
AcDbAttribute
  2
BLOCK_ID
 70
1
  0
ATTRIB
  5
164
330
17
100
AcDbEntity
  8
0
100
AcDbText
 10
672451.676088543
 20
8403460.049744567
 30
0.0
 40
0.05
  1
TR73-T0
 11
672451.676088543
 21
8403460.049744567
 31
0.0
100
AcDbAttribute
  2
ID
 70
1
  0
SEQEND
  5
162
330
161
100
AcDbEntity
  8
APV - PV Tables
  0
INSERT
  5
165
330
17
100
AcDbEntity
  8
APV - PV Tables
100
AcDbBlockReference
 66
1
  2
table_main
 10
672456.176088543
 20
8403459.849744568
 30
0.0
  0
ATTRIB
  5
167
330
17
100
AcDbEntity
  8
0
100
AcDbText
 10
672456.676088543
 20
8403459.949744567
 30
0.0
 40
0.05
  1
0
 11
672456.676088543
 21
8403459.949744567
 31
0.0
100
AcDbAttribute
  2
BLOCK_ID
 70
1
  0
ATTRIB
  5
168
330
17
100
AcDbEntity
  8
0
100
AcDbText
 10
672456.676088543
 20
8403460.049744567
 30
0.0
 40
0.05
  1
TR74-T0
 11
672456.676088543
 21
8403460.049744567
 31
0.0
100
AcDbAttribute
  2
ID
 70
1
  0
SEQEND
  5
166
330
165
100
AcDbEntity
  8
APV - PV Tables
  0
INSERT
  5
169
330
17
100
AcDbEntity
  8
APV - PV Tables
100
AcDbBlockReference
 66
1
  2
table_main
 10
672461.176088543
 20
8403459.849744568
 30
0.0
  0
ATTRIB
  5
16B
330
17
100
AcDbEntity
  8
0
100
AcDbText
 10
672461.676088543
 20
8403459.949744567
 30
0.0
 40
0.05
  1
0
 11
672461.676088543
 21
8403459.949744567
 31
0.0
100
AcDbAttribute
  2
BLOCK_ID
 70
1
  0
ATTRIB
  5
16C
330
17
100
AcDbEntity
  8
0
100
AcDbText
 10
672461.676088543
 20
8403460.049744567
 30
0.0
 40
0.05
  1
TR75-T0
 11
672461.676088543
 21
8403460.049744567
 31
0.0
100
AcDbAttribute
  2
ID
 70
1
  0
SEQEND
  5
16A
330
169
100
AcDbEntity
  8
APV - PV Tables
  0
INSERT
  5
16D
330
17
100
AcDbEntity
  8
APV - PV Tables
100
AcDbBlockReference
 66
1
  2
table_main
 10
672466.176088543
 20
8403459.849744568
 30
0.0
  0
ATTRIB
  5
16F
330
17
100
AcDbEntity
  8
0
100
AcDbText
 10
672466.676088543
 20
8403459.949744567
 30
0.0
 40
0.05
  1
0
 11
672466.676088543
 21
8403459.949744567
 31
0.0
100
AcDbAttribute
  2
BLOCK_ID
 70
1
  0
ATTRIB
  5
170
330
17
100
AcDbEntity
  8
0
100
AcDbText
 10
672466.676088543
 20
8403460.049744567
 30
0.0
 40
0.05
  1
TR76-T0
 11
672466.676088543
 21
8403460.049744567
 31
0.0
100
AcDbAttribute
  2
ID
 70
1
  0
SEQEND
  5
16E
330
16D
100
AcDbEntity
  8
APV - PV Tables
  0
INSERT
  5
171
330
17
100
AcDbEntity
  8
APV - PV Tables
100
AcDbBlockReference
 66
1
  2
table_main
 10
672471.176088543
 20
8403459.849744568
 30
0.0
  0
ATTRIB
  5
173
330
17
100
AcDbEntity
  8
0
100
AcDbText
 10
672471.676088543
 20
8403459.949744567
 30
0.0
 40
0.05
  1
0
 11
672471.676088543
 21
8403459.949744567
 31
0.0
100
AcDbAttribute
  2
BLOCK_ID
 70
1
  0
ATTRIB
  5
174
330
17
100
AcDbEntity
  8
0
100
AcDbText
 10
672471.676088543
 20
8403460.049744567
 30
0.0
 40
0.05
  1
TR77-T0
 11
672471.676088543
 21
8403460.049744567
 31
0.0
100
AcDbAttribute
  2
ID
 70
1
  0
SEQEND
  5
172
330
171
100
AcDbEntity
  8
APV - PV Tables
  0
INSERT
  5
175
330
17
100
AcDbEntity
  8
APV - PV Tables
100
AcDbBlockReference
 66
1
  2
table_main
 10
672476.176088543
 20
8403459.849744568
 30
0.0
  0
ATTRIB
  5
177
330
17
100
AcDbEntity
  8
0
100
AcDbText
 10
672476.676088543
 20
8403459.949744567
 30
0.0
 40
0.05
  1
0
 11
672476.676088543
 21
8403459.949744567
 31
0.0
100
AcDbAttribute
  2
BLOCK_ID
 70
1
  0
ATTRIB
  5
178
330
17
100
AcDbEntity
  8
0
100
AcDbText
 10
672476.676088543
 20
8403460.049744567
 30
0.0
 40
0.05
  1
TR78-T0
 11
672476.676088543
 21
8403460.049744567
 31
0.0
100
AcDbAttribute
  2
ID
 70
1
  0
SEQEND
  5
176
330
175
100
AcDbEntity
  8
APV - PV Tables
  0
INSERT
  5
179
330
17
100
AcDbEntity
  8
APV - PV Tables
100
AcDbBlockReference
 66
1
  2
table_main
 10
672481.176088543
 20
8403459.849744568
 30
0.0
  0
ATTRIB
  5
17B
330
17
100
AcDbEntity
  8
0
100
AcDbText
 10
672481.676088543
 20
8403459.949744567
 30
0.0
 40
0.05
  1
0
 11
672481.676088543
 21
8403459.949744567
 31
0.0
100
AcDbAttribute
  2
BLOCK_ID
 70
1
  0
ATTRIB
  5
17C
330
17
100
AcDbEntity
  8
0
100
AcDbText
 10
672481.676088543
 20
8403460.049744567
 30
0.0
 40
0.05
  1
TR79-T0
 11
672481.676088543
 21
8403460.049744567
 31
0.0
100
AcDbAttribute
  2
ID
 70
1
  0
SEQEND
  5
17A
330
179
100
AcDbEntity
  8
APV - PV Tables
  0
INSERT
  5
17D
330
17
100
AcDbEntity
  8
APV - PV Tables
100
AcDbBlockReference
 66
1
  2
table_main
 10
672486.176088543
 20
8403459.849744568
 30
0.0
  0
ATTRIB
  5
17F
330
17
100
AcDbEntity
  8
0
100
AcDbText
 10
672486.676088543
 20
8403459.949744567
 30
0.0
 40
0.05
  1
0
 11
672486.676088543
 21
8403459.949744567
 31
0.0
100
AcDbAttribute
  2
BLOCK_ID
 70
1
  0
ATTRIB
  5
180
330
17
100
AcDbEntity
  8
0
100
AcDbText
 10
672486.676088543
 20
8403460.049744567
 30
0.0
 40
0.05
  1
TR80-T0
 11
672486.676088543
 21
8403460.049744567
 31
0.0
100
AcDbAttribute
  2
ID
 70
1
  0
SEQEND
  5
17E
330
17D
100
AcDbEntity
  8
APV - PV Tables
  0
INSERT
  5
181
330
17
100
AcDbEntity
  8
APV - PV Tables
100
AcDbBlockReference
 66
1
  2
table_main
 10
672491.176088543
 20
8403459.849744568
 30
0.0
  0
ATTRIB
  5
183
330
17
100
AcDbEntity
  8
0
100
AcDbText
 10
672491.676088543
 20
8403459.949744567
 30
0.0
 40
0.05
  1
0
 11
672491.676088543
 21
8403459.949744567
 31
0.0
100
AcDbAttribute
  2
BLOCK_ID
 70
1
  0
ATTRIB
  5
184
330
17
100
AcDbEntity
  8
0
100
AcDbText
 10
672491.676088543
 20
8403460.049744567
 30
0.0
 40
0.05
  1
TR81-T0
 11
672491.676088543
 21
8403460.049744567
 31
0.0
100
AcDbAttribute
  2
ID
 70
1
  0
SEQEND
  5
182
330
181
100
AcDbEntity
  8
APV - PV Tables
  0
INSERT
  5
185
330
17
100
AcDbEntity
  8
APV - PV Tables
100
AcDbBlockReference
 66
1
  2
table_main
 10
672496.176088543
 20
8403459.849744568
 30
0.0
  0
ATTRIB
  5
187
330
17
100
AcDbEntity
  8
0
100
AcDbText
 10
672496.676088543
 20
8403459.949744567
 30
0.0
 40
0.05
  1
0
 11
672496.676088543
 21
8403459.949744567
 31
0.0
100
AcDbAttribute
  2
BLOCK_ID
 70
1
  0
ATTRIB
  5
188
330
17
100
AcDbEntity
  8
0
100
AcDbText
 10
672496.676088543
 20
8403460.049744567
 30
0.0
 40
0.05
  1
TR82-T0
 11
672496.676088543
 21
8403460.049744567
 31
0.0
100
AcDbAttribute
  2
ID
 70
1
  0
SEQEND
  5
186
330
185
100
AcDbEntity
  8
APV - PV Tables
  0
INSERT
  5
189
330
17
100
AcDbEntity
  8
APV - PV Tables
100
AcDbBlockReference
 66
1
  2
table_main
 10
672501.176088543
 20
8403459.849744568
 30
0.0
  0
ATTRIB
  5
18B
330
17
100
AcDbEntity
  8
0
100
AcDbText
 10
672501.676088543
 20
8403459.949744567
 30
0.0
 40
0.05
  1
0
 11
672501.676088543
 21
8403459.949744567
 31
0.0
100
AcDbAttribute
  2
BLOCK_ID
 70
1
  0
ATTRIB
  5
18C
330
17
100
AcDbEntity
  8
0
100
AcDbText
 10
672501.676088543
 20
8403460.049744567
 30
0.0
 40
0.05
  1
TR83-T0
 11
672501.676088543
 21
8403460.049744567
 31
0.0
100
AcDbAttribute
  2
ID
 70
1
  0
SEQEND
  5
18A
330
189
100
AcDbEntity
  8
APV - PV Tables
  0
INSERT
  5
18D
330
17
100
AcDbEntity
  8
APV - PV Tables
100
AcDbBlockReference
 66
1
  2
table_main
 10
672506.176088543
 20
8403459.849744568
 30
0.0
  0
ATTRIB
  5
18F
330
17
100
AcDbEntity
  8
0
100
AcDbText
 10
672506.676088543
 20
8403459.949744567
 30
0.0
 40
0.05
  1
0
 11
672506.676088543
 21
8403459.949744567
 31
0.0
100
AcDbAttribute
  2
BLOCK_ID
 70
1
  0
ATTRIB
  5
190
330
17
100
AcDbEntity
  8
0
100
AcDbText
 10
672506.676088543
 20
8403460.049744567
 30
0.0
 40
0.05
  1
TR84-T0
 11
672506.676088543
 21
8403460.049744567
 31
0.0
100
AcDbAttribute
  2
ID
 70
1
  0
SEQEND
  5
18E
330
18D
100
AcDbEntity
  8
APV - PV Tables
  0
INSERT
  5
191
330
17
100
AcDbEntity
  8
APV - PV Tables
100
AcDbBlockReference
 66
1
  2
table_main
 10
672511.176088543
 20
8403459.849744568
 30
0.0
  0
ATTRIB
  5
193
330
17
100
AcDbEntity
  8
0
100
AcDbText
 10
672511.676088543
 20
8403459.949744567
 30
0.0
 40
0.05
  1
0
 11
672511.676088543
 21
8403459.949744567
 31
0.0
100
AcDbAttribute
  2
BLOCK_ID
 70
1
  0
ATTRIB
  5
194
330
17
100
AcDbEntity
  8
0
100
AcDbText
 10
672511.676088543
 20
8403460.049744567
 30
0.0
 40
0.05
  1
TR85-T0
 11
672511.676088543
 21
8403460.049744567
 31
0.0
100
AcDbAttribute
  2
ID
 70
1
  0
SEQEND
  5
192
330
191
100
AcDbEntity
  8
APV - PV Tables
  0
INSERT
  5
195
330
17
100
AcDbEntity
  8
APV - PV Tables
100
AcDbBlockReference
 66
1
  2
table_main
 10
672516.176088543
 20
8403459.849744568
 30
0.0
  0
ATTRIB
  5
197
330
17
100
AcDbEntity
  8
0
100
AcDbText
 10
672516.676088543
 20
8403459.949744567
 30
0.0
 40
0.05
  1
0
 11
672516.676088543
 21
8403459.949744567
 31
0.0
100
AcDbAttribute
  2
BLOCK_ID
 70
1
  0
ATTRIB
  5
198
330
17
100
AcDbEntity
  8
0
100
AcDbText
 10
672516.676088543
 20
8403460.049744567
 30
0.0
 40
0.05
  1
TR86-T0
 11
672516.676088543
 21
8403460.049744567
 31
0.0
100
AcDbAttribute
  2
ID
 70
1
  0
SEQEND
  5
196
330
195
100
AcDbEntity
  8
APV - PV Tables
  0
INSERT
  5
199
330
17
100
AcDbEntity
  8
APV - PV Tables
100
AcDbBlockReference
 66
1
  2
table_main
 10
672521.176088543
 20
8403459.849744568
 30
0.0
  0
ATTRIB
  5
19B
330
17
100
AcDbEntity
  8
0
100
AcDbText
 10
672521.676088543
 20
8403459.949744567
 30
0.0
 40
0.05
  1
0
 11
672521.676088543
 21
8403459.949744567
 31
0.0
100
AcDbAttribute
  2
BLOCK_ID
 70
1
  0
ATTRIB
  5
19C
330
17
100
AcDbEntity
  8
0
100
AcDbText
 10
672521.676088543
 20
8403460.049744567
 30
0.0
 40
0.05
  1
TR87-T0
 11
672521.676088543
 21
8403460.049744567
 31
0.0
100
AcDbAttribute
  2
ID
 70
1
  0
SEQEND
  5
19A
330
199
100
AcDbEntity
  8
APV - PV Tables
  0
INSERT
  5
19D
330
17
100
AcDbEntity
  8
APV - PV Tables
100
AcDbBlockReference
 66
1
  2
table_main
 10
672526.176088543
 20
8403459.849744568
 30
0.0
  0
ATTRIB
  5
19F
330
17
100
AcDbEntity
  8
0
100
AcDbText
 10
672526.676088543
 20
8403459.949744567
 30
0.0
 40
0.05
  1
0
 11
672526.676088543
 21
8403459.949744567
 31
0.0
100
AcDbAttribute
  2
BLOCK_ID
 70
1
  0
ATTRIB
  5
1A0
330
17
100
AcDbEntity
  8
0
100
AcDbText
 10
672526.676088543
 20
8403460.049744567
 30
0.0
 40
0.05
  1
TR88-T0
 11
672526.676088543
 21
8403460.049744567
 31
0.0
100
AcDbAttribute
  2
ID
 70
1
  0
SEQEND
  5
19E
330
19D
100
AcDbEntity
  8
APV - PV Tables
  0
INSERT
  5
1A1
330
17
100
AcDbEntity
  8
APV - PV Tables
100
AcDbBlockReference
 66
1
  2
table_main
 10
672531.176088543
 20
8403459.849744568
 30
0.0
  0
ATTRIB
  5
1A3
330
17
100
AcDbEntity
  8
0
100
AcDbText
 10
672531.676088543
 20
8403459.949744567
 30
0.0
 40
0.05
  1
0
 11
672531.676088543
 21
8403459.949744567
 31
0.0
100
AcDbAttribute
  2
BLOCK_ID
 70
1
  0
ATTRIB
  5
1A4
330
17
100
AcDbEntity
  8
0
100
AcDbText
 10
672531.676088543
 20
8403460.049744567
 30
0.0
 40
0.05
  1
TR89-T0
 11
672531.676088543
 21
8403460.049744567
 31
0.0
100
AcDbAttribute
  2
ID
 70
1
  0
SEQEND
  5
1A2
330
1A1
100
AcDbEntity
  8
APV - PV Tables
  0
INSERT
  5
1A5
330
17
100
AcDbEntity
  8
APV - PV Tables
100
AcDbBlockReference
 66
1
  2
table_main
 10
672536.176088543
 20
8403459.849744568
 30
0.0
  0
ATTRIB
  5
1A7
330
17
100
AcDbEntity
  8
0
100
AcDbText
 10
672536.676088543
 20
8403459.949744567
 30
0.0
 40
0.05
  1
0
 11
672536.676088543
 21
8403459.949744567
 31
0.0
100
AcDbAttribute
  2
BLOCK_ID
 70
1
  0
ATTRIB
  5
1A8
330
17
100
AcDbEntity
  8
0
100
AcDbText
 10
672536.676088543
 20
8403460.049744567
 30
0.0
 40
0.05
  1
TR90-T0
 11
672536.676088543
 21
8403460.049744567
 31
0.0
100
AcDbAttribute
  2
ID
 70
1
  0
SEQEND
  5
1A6
330
1A5
100
AcDbEntity
  8
APV - PV Tables
  0
INSERT
  5
1A9
330
17
100
AcDbEntity
  8
APV - PV Tables
100
AcDbBlockReference
 66
1
  2
table_main
 10
672541.176088543
 20
8403459.849744568
 30
0.0
  0
ATTRIB
  5
1AB
330
17
100
AcDbEntity
  8
0
100
AcDbText
 10
672541.676088543
 20
8403459.949744567
 30
0.0
 40
0.05
  1
0
 11
672541.676088543
 21
8403459.949744567
 31
0.0
100
AcDbAttribute
  2
BLOCK_ID
 70
1
  0
ATTRIB
  5
1AC
330
17
100
AcDbEntity
  8
0
100
AcDbText
 10
672541.676088543
 20
8403460.049744567
 30
0.0
 40
0.05
  1
TR91-T0
 11
672541.676088543
 21
8403460.049744567
 31
0.0
100
AcDbAttribute
  2
ID
 70
1
  0
SEQEND
  5
1AA
330
1A9
100
AcDbEntity
  8
APV - PV Tables
  0
INSERT
  5
1AD
330
17
100
AcDbEntity
  8
APV - PV Tables
100
AcDbBlockReference
 66
1
  2
table_main
 10
672546.176088543
 20
8403459.849744568
 30
0.0
  0
ATTRIB
  5
1AF
330
17
100
AcDbEntity
  8
0
100
AcDbText
 10
672546.676088543
 20
8403459.949744567
 30
0.0
 40
0.05
  1
0
 11
672546.676088543
 21
8403459.949744567
 31
0.0
100
AcDbAttribute
  2
BLOCK_ID
 70
1
  0
ATTRIB
  5
1B0
330
17
100
AcDbEntity
  8
0
100
AcDbText
 10
672546.676088543
 20
8403460.049744567
 30
0.0
 40
0.05
  1
TR92-T0
 11
672546.676088543
 21
8403460.049744567
 31
0.0
100
AcDbAttribute
  2
ID
 70
1
  0
SEQEND
  5
1AE
330
1AD
100
AcDbEntity
  8
APV - PV Tables
  0
INSERT
  5
1B1
330
17
100
AcDbEntity
  8
APV - PV Tables
100
AcDbBlockReference
 66
1
  2
table_main
 10
672551.176088543
 20
8403459.849744568
 30
0.0
  0
ATTRIB
  5
1B3
330
17
100
AcDbEntity
  8
0
100
AcDbText
 10
672551.676088543
 20
8403459.949744567
 30
0.0
 40
0.05
  1
0
 11
672551.676088543
 21
8403459.949744567
 31
0.0
100
AcDbAttribute
  2
BLOCK_ID
 70
1
  0
ATTRIB
  5
1B4
330
17
100
AcDbEntity
  8
0
100
AcDbText
 10
672551.676088543
 20
8403460.049744567
 30
0.0
 40
0.05
  1
TR93-T0
 11
672551.676088543
 21
8403460.049744567
 31
0.0
100
AcDbAttribute
  2
ID
 70
1
  0
SEQEND
  5
1B2
330
1B1
100
AcDbEntity
  8
APV - PV Tables
  0
INSERT
  5
1B5
330
17
100
AcDbEntity
  8
APV - PV Tables
100
AcDbBlockReference
 66
1
  2
table_main
 10
672556.176088543
 20
8403459.849744568
 30
0.0
  0
ATTRIB
  5
1B7
330
17
100
AcDbEntity
  8
0
100
AcDbText
 10
672556.676088543
 20
8403459.949744567
 30
0.0
 40
0.05
  1
0
 11
672556.676088543
 21
8403459.949744567
 31
0.0
100
AcDbAttribute
  2
BLOCK_ID
 70
1
  0
ATTRIB
  5
1B8
330
17
100
AcDbEntity
  8
0
100
AcDbText
 10
672556.676088543
 20
8403460.049744567
 30
0.0
 40
0.05
  1
TR94-T0
 11
672556.676088543
 21
8403460.049744567
 31
0.0
100
AcDbAttribute
  2
ID
 70
1
  0
SEQEND
  5
1B6
330
1B5
100
AcDbEntity
  8
APV - PV Tables
  0
INSERT
  5
1B9
330
17
100
AcDbEntity
  8
APV - PV Tables
100
AcDbBlockReference
 66
1
  2
table_main
 10
672561.176088543
 20
8403459.849744568
 30
0.0
  0
ATTRIB
  5
1BB
330
17
100
AcDbEntity
  8
0
100
AcDbText
 10
672561.676088543
 20
8403459.949744567
 30
0.0
 40
0.05
  1
0
 11
672561.676088543
 21
8403459.949744567
 31
0.0
100
AcDbAttribute
  2
BLOCK_ID
 70
1
  0
ATTRIB
  5
1BC
330
17
100
AcDbEntity
  8
0
100
AcDbText
 10
672561.676088543
 20
8403460.049744567
 30
0.0
 40
0.05
  1
TR95-T0
 11
672561.676088543
 21
8403460.049744567
 31
0.0
100
AcDbAttribute
  2
ID
 70
1
  0
SEQEND
  5
1BA
330
1B9
100
AcDbEntity
  8
APV - PV Tables
  0
INSERT
  5
1BD
330
17
100
AcDbEntity
  8
APV - PV Tables
100
AcDbBlockReference
 66
1
  2
table_main
 10
672566.176088543
 20
8403459.849744568
 30
0.0
  0
ATTRIB
  5
1BF
330
17
100
AcDbEntity
  8
0
100
AcDbText
 10
672566.676088543
 20
8403459.949744567
 30
0.0
 40
0.05
  1
0
 11
672566.676088543
 21
8403459.949744567
 31
0.0
100
AcDbAttribute
  2
BLOCK_ID
 70
1
  0
ATTRIB
  5
1C0
330
17
100
AcDbEntity
  8
0
100
AcDbText
 10
672566.676088543
 20
8403460.049744567
 30
0.0
 40
0.05
  1
TR96-T0
 11
672566.676088543
 21
8403460.049744567
 31
0.0
100
AcDbAttribute
  2
ID
 70
1
  0
SEQEND
  5
1BE
330
1BD
100
AcDbEntity
  8
APV - PV Tables
  0
INSERT
  5
1C1
330
17
100
AcDbEntity
  8
APV - PV Tables
100
AcDbBlockReference
 66
1
  2
table_main
 10
672571.176088543
 20
8403459.849744568
 30
0.0
  0
ATTRIB
  5
1C3
330
17
100
AcDbEntity
  8
0
100
AcDbText
 10
672571.676088543
 20
8403459.949744567
 30
0.0
 40
0.05
  1
0
 11
672571.676088543
 21
8403459.949744567
 31
0.0
100
AcDbAttribute
  2
BLOCK_ID
 70
1
  0
ATTRIB
  5
1C4
330
17
100
AcDbEntity
  8
0
100
AcDbText
 10
672571.676088543
 20
8403460.049744567
 30
0.0
 40
0.05
  1
TR97-T0
 11
672571.676088543
 21
8403460.049744567
 31
0.0
100
AcDbAttribute
  2
ID
 70
1
  0
SEQEND
  5
1C2
330
1C1
100
AcDbEntity
  8
APV - PV Tables
  0
INSERT
  5
1C5
330
17
100
AcDbEntity
  8
APV - PV Tables
100
AcDbBlockReference
 66
1
  2
table_main
 10
672576.176088543
 20
8403459.849744568
 30
0.0
  0
ATTRIB
  5
1C7
330
17
100
AcDbEntity
  8
0
100
AcDbText
 10
672576.676088543
 20
8403459.949744567
 30
0.0
 40
0.05
  1
0
 11
672576.676088543
 21
8403459.949744567
 31
0.0
100
AcDbAttribute
  2
BLOCK_ID
 70
1
  0
ATTRIB
  5
1C8
330
17
100
AcDbEntity
  8
0
100
AcDbText
 10
672576.676088543
 20
8403460.049744567
 30
0.0
 40
0.05
  1
TR98-T0
 11
672576.676088543
 21
8403460.049744567
 31
0.0
100
AcDbAttribute
  2
ID
 70
1
  0
SEQEND
  5
1C6
330
1C5
100
AcDbEntity
  8
APV - PV Tables
  0
INSERT
  5
1C9
330
17
100
AcDbEntity
  8
APV - PV Tables
100
AcDbBlockReference
 66
1
  2
table_main
 10
672581.176088543
 20
8403459.849744568
 30
0.0
  0
ATTRIB
  5
1CB
330
17
100
AcDbEntity
  8
0
100
AcDbText
 10
672581.676088543
 20
8403459.949744567
 30
0.0
 40
0.05
  1
0
 11
672581.676088543
 21
8403459.949744567
 31
0.0
100
AcDbAttribute
  2
BLOCK_ID
 70
1
  0
ATTRIB
  5
1CC
330
17
100
AcDbEntity
  8
0
100
AcDbText
 10
672581.676088543
 20
8403460.049744567
 30
0.0
 40
0.05
  1
TR99-T0
 11
672581.676088543
 21
8403460.049744567
 31
0.0
100
AcDbAttribute
  2
ID
 70
1
  0
SEQEND
  5
1CA
330
1C9
100
AcDbEntity
  8
APV - PV Tables
  0
INSERT
  5
1CD
330
17
100
AcDbEntity
  8
APV - PV Tables
100
AcDbBlockReference
 66
1
  2
table_main
 10
672586.176088543
 20
8403459.849744568
 30
0.0
  0
ATTRIB
  5
1CF
330
17
100
AcDbEntity
  8
0
100
AcDbText
 10
672586.676088543
 20
8403459.949744567
 30
0.0
 40
0.05
  1
0
 11
672586.676088543
 21
8403459.949744567
 31
0.0
100
AcDbAttribute
  2
BLOCK_ID
 70
1
  0
ATTRIB
  5
1D0
330
17
100
AcDbEntity
  8
0
100
AcDbText
 10
672586.676088543
 20
8403460.049744567
 30
0.0
 40
0.05
  1
TR100-T0
 11
672586.676088543
 21
8403460.049744567
 31
0.0
100
AcDbAttribute
  2
ID
 70
1
  0
SEQEND
  5
1CE
330
1CD
100
AcDbEntity
  8
APV - PV Tables
  0
INSERT
  5
1D1
330
17
100
AcDbEntity
  8
APV - PV Tables
100
AcDbBlockReference
 66
1
  2
table_main
 10
672591.176088543
 20
8403459.849744568
 30
0.0
  0
ATTRIB
  5
1D3
330
17
100
AcDbEntity
  8
0
100
AcDbText
 10
672591.676088543
 20
8403459.949744567
 30
0.0
 40
0.05
  1
0
 11
672591.676088543
 21
8403459.949744567
 31
0.0
100
AcDbAttribute
  2
BLOCK_ID
 70
1
  0
ATTRIB
  5
1D4
330
17
100
AcDbEntity
  8
0
100
AcDbText
 10
672591.676088543
 20
8403460.049744567
 30
0.0
 40
0.05
  1
TR101-T0
 11
672591.676088543
 21
8403460.049744567
 31
0.0
100
AcDbAttribute
  2
ID
 70
1
  0
SEQEND
  5
1D2
330
1D1
100
AcDbEntity
  8
APV - PV Tables
  0
INSERT
  5
1D5
330
17
100
AcDbEntity
  8
APV - PV Tables
100
AcDbBlockReference
 66
1
  2
table_main
 10
672596.176088543
 20
8403459.849744568
 30
0.0
  0
ATTRIB
  5
1D7
330
17
100
AcDbEntity
  8
0
100
AcDbText
 10
672596.676088543
 20
8403459.949744567
 30
0.0
 40
0.05
  1
0
 11
672596.676088543
 21
8403459.949744567
 31
0.0
100
AcDbAttribute
  2
BLOCK_ID
 70
1
  0
ATTRIB
  5
1D8
330
17
100
AcDbEntity
  8
0
100
AcDbText
 10
672596.676088543
 20
8403460.049744567
 30
0.0
 40
0.05
  1
TR102-T0
 11
672596.676088543
 21
8403460.049744567
 31
0.0
100
AcDbAttribute
  2
ID
 70
1
  0
SEQEND
  5
1D6
330
1D5
100
AcDbEntity
  8
APV - PV Tables
  0
INSERT
  5
1D9
330
17
100
AcDbEntity
  8
APV - PV Tables
100
AcDbBlockReference
 66
1
  2
table_main
 10
672601.176088543
 20
8403459.849744568
 30
0.0
  0
ATTRIB
  5
1DB
330
17
100
AcDbEntity
  8
0
100
AcDbText
 10
672601.676088543
 20
8403459.949744567
 30
0.0
 40
0.05
  1
0
 11
672601.676088543
 21
8403459.949744567
 31
0.0
100
AcDbAttribute
  2
BLOCK_ID
 70
1
  0
ATTRIB
  5
1DC
330
17
100
AcDbEntity
  8
0
100
AcDbText
 10
672601.676088543
 20
8403460.049744567
 30
0.0
 40
0.05
  1
TR103-T0
 11
672601.676088543
 21
8403460.049744567
 31
0.0
100
AcDbAttribute
  2
ID
 70
1
  0
SEQEND
  5
1DA
330
1D9
100
AcDbEntity
  8
APV - PV Tables
  0
INSERT
  5
1DD
330
17
100
AcDbEntity
  8
APV - PV Tables
100
AcDbBlockReference
 66
1
  2
table_main
 10
672606.176088543
 20
8403459.849744568
 30
0.0
  0
ATTRIB
  5
1DF
330
17
100
AcDbEntity
  8
0
100
AcDbText
 10
672606.676088543
 20
8403459.949744567
 30
0.0
 40
0.05
  1
0
 11
672606.676088543
 21
8403459.949744567
 31
0.0
100
AcDbAttribute
  2
BLOCK_ID
 70
1
  0
ATTRIB
  5
1E0
330
17
100
AcDbEntity
  8
0
100
AcDbText
 10
672606.676088543
 20
8403460.049744567
 30
0.0
 40
0.05
  1
TR104-T0
 11
672606.676088543
 21
8403460.049744567
 31
0.0
100
AcDbAttribute
  2
ID
 70
1
  0
SEQEND
  5
1DE
330
1DD
100
AcDbEntity
  8
APV - PV Tables
  0
INSERT
  5
1E1
330
17
100
AcDbEntity
  8
APV - PV Tables
100
AcDbBlockReference
 66
1
  2
table_main
 10
672611.176088543
 20
8403459.849744568
 30
0.0
  0
ATTRIB
  5
1E3
330
17
100
AcDbEntity
  8
0
100
AcDbText
 10
672611.676088543
 20
8403459.949744567
 30
0.0
 40
0.05
  1
0
 11
672611.676088543
 21
8403459.949744567
 31
0.0
100
AcDbAttribute
  2
BLOCK_ID
 70
1
  0
ATTRIB
  5
1E4
330
17
100
AcDbEntity
  8
0
100
AcDbText
 10
672611.676088543
 20
8403460.049744567
 30
0.0
 40
0.05
  1
TR105-T0
 11
672611.676088543
 21
8403460.049744567
 31
0.0
100
AcDbAttribute
  2
ID
 70
1
  0
SEQEND
  5
1E2
330
1E1
100
AcDbEntity
  8
APV - PV Tables
  0
INSERT
  5
1E5
330
17
100
AcDbEntity
  8
APV - PV Tables
100
AcDbBlockReference
 66
1
  2
table_main
 10
672616.176088543
 20
8403459.849744568
 30
0.0
  0
ATTRIB
  5
1E7
330
17
100
AcDbEntity
  8
0
100
AcDbText
 10
672616.676088543
 20
8403459.949744567
 30
0.0
 40
0.05
  1
0
 11
672616.676088543
 21
8403459.949744567
 31
0.0
100
AcDbAttribute
  2
BLOCK_ID
 70
1
  0
ATTRIB
  5
1E8
330
17
100
AcDbEntity
  8
0
100
AcDbText
 10
672616.676088543
 20
8403460.049744567
 30
0.0
 40
0.05
  1
TR106-T0
 11
672616.676088543
 21
8403460.049744567
 31
0.0
100
AcDbAttribute
  2
ID
 70
1
  0
SEQEND
  5
1E6
330
1E5
100
AcDbEntity
  8
APV - PV Tables
  0
INSERT
  5
1E9
330
17
100
AcDbEntity
  8
APV - PV Tables
100
AcDbBlockReference
 66
1
  2
table_main
 10
672621.176088543
 20
8403459.849744568
 30
0.0
  0
ATTRIB
  5
1EB
330
17
100
AcDbEntity
  8
0
100
AcDbText
 10
672621.676088543
 20
8403459.949744567
 30
0.0
 40
0.05
  1
0
 11
672621.676088543
 21
8403459.949744567
 31
0.0
100
AcDbAttribute
  2
BLOCK_ID
 70
1
  0
ATTRIB
  5
1EC
330
17
100
AcDbEntity
  8
0
100
AcDbText
 10
672621.676088543
 20
8403460.049744567
 30
0.0
 40
0.05
  1
TR107-T0
 11
672621.676088543
 21
8403460.049744567
 31
0.0
100
AcDbAttribute
  2
ID
 70
1
  0
SEQEND
  5
1EA
330
1E9
100
AcDbEntity
  8
APV - PV Tables
  0
INSERT
  5
1ED
330
17
100
AcDbEntity
  8
APV - PV Tables
100
AcDbBlockReference
 66
1
  2
table_main
 10
672626.176088543
 20
8403459.849744568
 30
0.0
  0
ATTRIB
  5
1EF
330
17
100
AcDbEntity
  8
0
100
AcDbText
 10
672626.676088543
 20
8403459.949744567
 30
0.0
 40
0.05
  1
0
 11
672626.676088543
 21
8403459.949744567
 31
0.0
100
AcDbAttribute
  2
BLOCK_ID
 70
1
  0
ATTRIB
  5
1F0
330
17
100
AcDbEntity
  8
0
100
AcDbText
 10
672626.676088543
 20
8403460.049744567
 30
0.0
 40
0.05
  1
TR108-T0
 11
672626.676088543
 21
8403460.049744567
 31
0.0
100
AcDbAttribute
  2
ID
 70
1
  0
SEQEND
  5
1EE
330
1ED
100
AcDbEntity
  8
APV - PV Tables
  0
INSERT
  5
1F1
330
17
100
AcDbEntity
  8
APV - PV Tables
100
AcDbBlockReference
 66
1
  2
table_main
 10
672631.176088543
 20
8403459.849744568
 30
0.0
  0
ATTRIB
  5
1F3
330
17
100
AcDbEntity
  8
0
100
AcDbText
 10
672631.676088543
 20
8403459.949744567
 30
0.0
 40
0.05
  1
0
 11
672631.676088543
 21
8403459.949744567
 31
0.0
100
AcDbAttribute
  2
BLOCK_ID
 70
1
  0
ATTRIB
  5
1F4
330
17
100
AcDbEntity
  8
0
100
AcDbText
 10
672631.676088543
 20
8403460.049744567
 30
0.0
 40
0.05
  1
TR109-T0
 11
672631.676088543
 21
8403460.049744567
 31
0.0
100
AcDbAttribute
  2
ID
 70
1
  0
SEQEND
  5
1F2
330
1F1
100
AcDbEntity
  8
APV - PV Tables
  0
INSERT
  5
1F5
330
17
100
AcDbEntity
  8
APV - PV Tables
100
AcDbBlockReference
 66
1
  2
table_main
 10
672636.176088543
 20
8403459.849744568
 30
0.0
  0
ATTRIB
  5
1F7
330
17
100
AcDbEntity
  8
0
100
AcDbText
 10
672636.676088543
 20
8403459.949744567
 30
0.0
 40
0.05
  1
0
 11
672636.676088543
 21
8403459.949744567
 31
0.0
100
AcDbAttribute
  2
BLOCK_ID
 70
1
  0
ATTRIB
  5
1F8
330
17
100
AcDbEntity
  8
0
100
AcDbText
 10
672636.676088543
 20
8403460.049744567
 30
0.0
 40
0.05
  1
TR110-T0
 11
672636.676088543
 21
8403460.049744567
 31
0.0
100
AcDbAttribute
  2
ID
 70
1
  0
SEQEND
  5
1F6
330
1F5
100
AcDbEntity
  8
APV - PV Tables
  0
INSERT
  5
1F9
330
17
100
AcDbEntity
  8
APV - PV Tables
100
AcDbBlockReference
 66
1
  2
table_main
 10
672346.176088543
 20
8403561.765744569
 30
0.0
  0
ATTRIB
  5
1FB
330
17
100
AcDbEntity
  8
0
100
AcDbText
 10
672346.676088543
 20
8403561.865744568
 30
0.0
 40
0.05
  1
0
 11
672346.676088543
 21
8403561.865744568
 31
0.0
100
AcDbAttribute
  2
BLOCK_ID
 70
1
  0
ATTRIB
  5
1FC
330
17
100
AcDbEntity
  8
0
100
AcDbText
 10
672346.676088543
 20
8403561.965744568
 30
0.0
 40
0.05
  1
TR111-T0
 11
672346.676088543
 21
8403561.965744568
 31
0.0
100
AcDbAttribute
  2
ID
 70
1
  0
SEQEND
  5
1FA
330
1F9
100
AcDbEntity
  8
APV - PV Tables
  0
INSERT
  5
1FD
330
17
100
AcDbEntity
  8
APV - PV Tables
100
AcDbBlockReference
 66
1
  2
table_main
 10
672351.176088543
 20
8403561.765744569
 30
0.0
  0
ATTRIB
  5
1FF
330
17
100
AcDbEntity
  8
0
100
AcDbText
 10
672351.676088543
 20
8403561.865744568
 30
0.0
 40
0.05
  1
0
 11
672351.676088543
 21
8403561.865744568
 31
0.0
100
AcDbAttribute
  2
BLOCK_ID
 70
1
  0
ATTRIB
  5
200
330
17
100
AcDbEntity
  8
0
100
AcDbText
 10
672351.676088543
 20
8403561.965744568
 30
0.0
 40
0.05
  1
TR112-T0
 11
672351.676088543
 21
8403561.965744568
 31
0.0
100
AcDbAttribute
  2
ID
 70
1
  0
SEQEND
  5
1FE
330
1FD
100
AcDbEntity
  8
APV - PV Tables
  0
INSERT
  5
201
330
17
100
AcDbEntity
  8
APV - PV Tables
100
AcDbBlockReference
 66
1
  2
table_main
 10
672356.176088543
 20
8403561.765744569
 30
0.0
  0
ATTRIB
  5
203
330
17
100
AcDbEntity
  8
0
100
AcDbText
 10
672356.676088543
 20
8403561.865744568
 30
0.0
 40
0.05
  1
0
 11
672356.676088543
 21
8403561.865744568
 31
0.0
100
AcDbAttribute
  2
BLOCK_ID
 70
1
  0
ATTRIB
  5
204
330
17
100
AcDbEntity
  8
0
100
AcDbText
 10
672356.676088543
 20
8403561.965744568
 30
0.0
 40
0.05
  1
TR113-T0
 11
672356.676088543
 21
8403561.965744568
 31
0.0
100
AcDbAttribute
  2
ID
 70
1
  0
SEQEND
  5
202
330
201
100
AcDbEntity
  8
APV - PV Tables
  0
INSERT
  5
205
330
17
100
AcDbEntity
  8
APV - PV Tables
100
AcDbBlockReference
 66
1
  2
table_main
 10
672361.176088543
 20
8403561.765744569
 30
0.0
  0
ATTRIB
  5
207
330
17
100
AcDbEntity
  8
0
100
AcDbText
 10
672361.676088543
 20
8403561.865744568
 30
0.0
 40
0.05
  1
0
 11
672361.676088543
 21
8403561.865744568
 31
0.0
100
AcDbAttribute
  2
BLOCK_ID
 70
1
  0
ATTRIB
  5
208
330
17
100
AcDbEntity
  8
0
100
AcDbText
 10
672361.676088543
 20
8403561.965744568
 30
0.0
 40
0.05
  1
TR114-T0
 11
672361.676088543
 21
8403561.965744568
 31
0.0
100
AcDbAttribute
  2
ID
 70
1
  0
SEQEND
  5
206
330
205
100
AcDbEntity
  8
APV - PV Tables
  0
INSERT
  5
209
330
17
100
AcDbEntity
  8
APV - PV Tables
100
AcDbBlockReference
 66
1
  2
table_main
 10
672366.176088543
 20
8403561.765744569
 30
0.0
  0
ATTRIB
  5
20B
330
17
100
AcDbEntity
  8
0
100
AcDbText
 10
672366.676088543
 20
8403561.865744568
 30
0.0
 40
0.05
  1
0
 11
672366.676088543
 21
8403561.865744568
 31
0.0
100
AcDbAttribute
  2
BLOCK_ID
 70
1
  0
ATTRIB
  5
20C
330
17
100
AcDbEntity
  8
0
100
AcDbText
 10
672366.676088543
 20
8403561.965744568
 30
0.0
 40
0.05
  1
TR115-T0
 11
672366.676088543
 21
8403561.965744568
 31
0.0
100
AcDbAttribute
  2
ID
 70
1
  0
SEQEND
  5
20A
330
209
100
AcDbEntity
  8
APV - PV Tables
  0
INSERT
  5
20D
330
17
100
AcDbEntity
  8
APV - PV Tables
100
AcDbBlockReference
 66
1
  2
table_main
 10
672371.176088543
 20
8403561.765744569
 30
0.0
  0
ATTRIB
  5
20F
330
17
100
AcDbEntity
  8
0
100
AcDbText
 10
672371.676088543
 20
8403561.865744568
 30
0.0
 40
0.05
  1
0
 11
672371.676088543
 21
8403561.865744568
 31
0.0
100
AcDbAttribute
  2
BLOCK_ID
 70
1
  0
ATTRIB
  5
210
330
17
100
AcDbEntity
  8
0
100
AcDbText
 10
672371.676088543
 20
8403561.965744568
 30
0.0
 40
0.05
  1
TR116-T0
 11
672371.676088543
 21
8403561.965744568
 31
0.0
100
AcDbAttribute
  2
ID
 70
1
  0
SEQEND
  5
20E
330
20D
100
AcDbEntity
  8
APV - PV Tables
  0
INSERT
  5
211
330
17
100
AcDbEntity
  8
APV - PV Tables
100
AcDbBlockReference
 66
1
  2
table_main
 10
672376.176088543
 20
8403561.765744569
 30
0.0
  0
ATTRIB
  5
213
330
17
100
AcDbEntity
  8
0
100
AcDbText
 10
672376.676088543
 20
8403561.865744568
 30
0.0
 40
0.05
  1
0
 11
672376.676088543
 21
8403561.865744568
 31
0.0
100
AcDbAttribute
  2
BLOCK_ID
 70
1
  0
ATTRIB
  5
214
330
17
100
AcDbEntity
  8
0
100
AcDbText
 10
672376.676088543
 20
8403561.965744568
 30
0.0
 40
0.05
  1
TR117-T0
 11
672376.676088543
 21
8403561.965744568
 31
0.0
100
AcDbAttribute
  2
ID
 70
1
  0
SEQEND
  5
212
330
211
100
AcDbEntity
  8
APV - PV Tables
  0
INSERT
  5
215
330
17
100
AcDbEntity
  8
APV - PV Tables
100
AcDbBlockReference
 66
1
  2
table_main
 10
672381.176088543
 20
8403561.765744569
 30
0.0
  0
ATTRIB
  5
217
330
17
100
AcDbEntity
  8
0
100
AcDbText
 10
672381.676088543
 20
8403561.865744568
 30
0.0
 40
0.05
  1
0
 11
672381.676088543
 21
8403561.865744568
 31
0.0
100
AcDbAttribute
  2
BLOCK_ID
 70
1
  0
ATTRIB
  5
218
330
17
100
AcDbEntity
  8
0
100
AcDbText
 10
672381.676088543
 20
8403561.965744568
 30
0.0
 40
0.05
  1
TR118-T0
 11
672381.676088543
 21
8403561.965744568
 31
0.0
100
AcDbAttribute
  2
ID
 70
1
  0
SEQEND
  5
216
330
215
100
AcDbEntity
  8
APV - PV Tables
  0
INSERT
  5
219
330
17
100
AcDbEntity
  8
APV - PV Tables
100
AcDbBlockReference
 66
1
  2
table_main
 10
672386.176088543
 20
8403561.765744569
 30
0.0
  0
ATTRIB
  5
21B
330
17
100
AcDbEntity
  8
0
100
AcDbText
 10
672386.676088543
 20
8403561.865744568
 30
0.0
 40
0.05
  1
0
 11
672386.676088543
 21
8403561.865744568
 31
0.0
100
AcDbAttribute
  2
BLOCK_ID
 70
1
  0
ATTRIB
  5
21C
330
17
100
AcDbEntity
  8
0
100
AcDbText
 10
672386.676088543
 20
8403561.965744568
 30
0.0
 40
0.05
  1
TR119-T0
 11
672386.676088543
 21
8403561.965744568
 31
0.0
100
AcDbAttribute
  2
ID
 70
1
  0
SEQEND
  5
21A
330
219
100
AcDbEntity
  8
APV - PV Tables
  0
INSERT
  5
21D
330
17
100
AcDbEntity
  8
APV - PV Tables
100
AcDbBlockReference
 66
1
  2
table_main
 10
672391.176088543
 20
8403561.765744569
 30
0.0
  0
ATTRIB
  5
21F
330
17
100
AcDbEntity
  8
0
100
AcDbText
 10
672391.676088543
 20
8403561.865744568
 30
0.0
 40
0.05
  1
0
 11
672391.676088543
 21
8403561.865744568
 31
0.0
100
AcDbAttribute
  2
BLOCK_ID
 70
1
  0
ATTRIB
  5
220
330
17
100
AcDbEntity
  8
0
100
AcDbText
 10
672391.676088543
 20
8403561.965744568
 30
0.0
 40
0.05
  1
TR120-T0
 11
672391.676088543
 21
8403561.965744568
 31
0.0
100
AcDbAttribute
  2
ID
 70
1
  0
SEQEND
  5
21E
330
21D
100
AcDbEntity
  8
APV - PV Tables
  0
INSERT
  5
221
330
17
100
AcDbEntity
  8
APV - PV Tables
100
AcDbBlockReference
 66
1
  2
table_main
 10
672396.176088543
 20
8403561.765744569
 30
0.0
  0
ATTRIB
  5
223
330
17
100
AcDbEntity
  8
0
100
AcDbText
 10
672396.676088543
 20
8403561.865744568
 30
0.0
 40
0.05
  1
0
 11
672396.676088543
 21
8403561.865744568
 31
0.0
100
AcDbAttribute
  2
BLOCK_ID
 70
1
  0
ATTRIB
  5
224
330
17
100
AcDbEntity
  8
0
100
AcDbText
 10
672396.676088543
 20
8403561.965744568
 30
0.0
 40
0.05
  1
TR121-T0
 11
672396.676088543
 21
8403561.965744568
 31
0.0
100
AcDbAttribute
  2
ID
 70
1
  0
SEQEND
  5
222
330
221
100
AcDbEntity
  8
APV - PV Tables
  0
INSERT
  5
225
330
17
100
AcDbEntity
  8
APV - PV Tables
100
AcDbBlockReference
 66
1
  2
table_main
 10
672401.176088543
 20
8403561.765744569
 30
0.0
  0
ATTRIB
  5
227
330
17
100
AcDbEntity
  8
0
100
AcDbText
 10
672401.676088543
 20
8403561.865744568
 30
0.0
 40
0.05
  1
0
 11
672401.676088543
 21
8403561.865744568
 31
0.0
100
AcDbAttribute
  2
BLOCK_ID
 70
1
  0
ATTRIB
  5
228
330
17
100
AcDbEntity
  8
0
100
AcDbText
 10
672401.676088543
 20
8403561.965744568
 30
0.0
 40
0.05
  1
TR122-T0
 11
672401.676088543
 21
8403561.965744568
 31
0.0
100
AcDbAttribute
  2
ID
 70
1
  0
SEQEND
  5
226
330
225
100
AcDbEntity
  8
APV - PV Tables
  0
INSERT
  5
229
330
17
100
AcDbEntity
  8
APV - PV Tables
100
AcDbBlockReference
 66
1
  2
table_main
 10
672406.176088543
 20
8403561.765744569
 30
0.0
  0
ATTRIB
  5
22B
330
17
100
AcDbEntity
  8
0
100
AcDbText
 10
672406.676088543
 20
8403561.865744568
 30
0.0
 40
0.05
  1
0
 11
672406.676088543
 21
8403561.865744568
 31
0.0
100
AcDbAttribute
  2
BLOCK_ID
 70
1
  0
ATTRIB
  5
22C
330
17
100
AcDbEntity
  8
0
100
AcDbText
 10
672406.676088543
 20
8403561.965744568
 30
0.0
 40
0.05
  1
TR123-T0
 11
672406.676088543
 21
8403561.965744568
 31
0.0
100
AcDbAttribute
  2
ID
 70
1
  0
SEQEND
  5
22A
330
229
100
AcDbEntity
  8
APV - PV Tables
  0
INSERT
  5
22D
330
17
100
AcDbEntity
  8
APV - PV Tables
100
AcDbBlockReference
 66
1
  2
table_main
 10
672411.176088543
 20
8403561.765744569
 30
0.0
  0
ATTRIB
  5
22F
330
17
100
AcDbEntity
  8
0
100
AcDbText
 10
672411.676088543
 20
8403561.865744568
 30
0.0
 40
0.05
  1
0
 11
672411.676088543
 21
8403561.865744568
 31
0.0
100
AcDbAttribute
  2
BLOCK_ID
 70
1
  0
ATTRIB
  5
230
330
17
100
AcDbEntity
  8
0
100
AcDbText
 10
672411.676088543
 20
8403561.965744568
 30
0.0
 40
0.05
  1
TR124-T0
 11
672411.676088543
 21
8403561.965744568
 31
0.0
100
AcDbAttribute
  2
ID
 70
1
  0
SEQEND
  5
22E
330
22D
100
AcDbEntity
  8
APV - PV Tables
  0
INSERT
  5
231
330
17
100
AcDbEntity
  8
APV - PV Tables
100
AcDbBlockReference
 66
1
  2
table_main
 10
672416.176088543
 20
8403561.765744569
 30
0.0
  0
ATTRIB
  5
233
330
17
100
AcDbEntity
  8
0
100
AcDbText
 10
672416.676088543
 20
8403561.865744568
 30
0.0
 40
0.05
  1
0
 11
672416.676088543
 21
8403561.865744568
 31
0.0
100
AcDbAttribute
  2
BLOCK_ID
 70
1
  0
ATTRIB
  5
234
330
17
100
AcDbEntity
  8
0
100
AcDbText
 10
672416.676088543
 20
8403561.965744568
 30
0.0
 40
0.05
  1
TR125-T0
 11
672416.676088543
 21
8403561.965744568
 31
0.0
100
AcDbAttribute
  2
ID
 70
1
  0
SEQEND
  5
232
330
231
100
AcDbEntity
  8
APV - PV Tables
  0
INSERT
  5
235
330
17
100
AcDbEntity
  8
APV - PV Tables
100
AcDbBlockReference
 66
1
  2
table_main
 10
672421.176088543
 20
8403561.765744569
 30
0.0
  0
ATTRIB
  5
237
330
17
100
AcDbEntity
  8
0
100
AcDbText
 10
672421.676088543
 20
8403561.865744568
 30
0.0
 40
0.05
  1
0
 11
672421.676088543
 21
8403561.865744568
 31
0.0
100
AcDbAttribute
  2
BLOCK_ID
 70
1
  0
ATTRIB
  5
238
330
17
100
AcDbEntity
  8
0
100
AcDbText
 10
672421.676088543
 20
8403561.965744568
 30
0.0
 40
0.05
  1
TR126-T0
 11
672421.676088543
 21
8403561.965744568
 31
0.0
100
AcDbAttribute
  2
ID
 70
1
  0
SEQEND
  5
236
330
235
100
AcDbEntity
  8
APV - PV Tables
  0
INSERT
  5
239
330
17
100
AcDbEntity
  8
APV - PV Tables
100
AcDbBlockReference
 66
1
  2
table_main
 10
672426.176088543
 20
8403561.765744569
 30
0.0
  0
ATTRIB
  5
23B
330
17
100
AcDbEntity
  8
0
100
AcDbText
 10
672426.676088543
 20
8403561.865744568
 30
0.0
 40
0.05
  1
0
 11
672426.676088543
 21
8403561.865744568
 31
0.0
100
AcDbAttribute
  2
BLOCK_ID
 70
1
  0
ATTRIB
  5
23C
330
17
100
AcDbEntity
  8
0
100
AcDbText
 10
672426.676088543
 20
8403561.965744568
 30
0.0
 40
0.05
  1
TR127-T0
 11
672426.676088543
 21
8403561.965744568
 31
0.0
100
AcDbAttribute
  2
ID
 70
1
  0
SEQEND
  5
23A
330
239
100
AcDbEntity
  8
APV - PV Tables
  0
INSERT
  5
23D
330
17
100
AcDbEntity
  8
APV - PV Tables
100
AcDbBlockReference
 66
1
  2
table_main
 10
672431.176088543
 20
8403561.765744569
 30
0.0
  0
ATTRIB
  5
23F
330
17
100
AcDbEntity
  8
0
100
AcDbText
 10
672431.676088543
 20
8403561.865744568
 30
0.0
 40
0.05
  1
0
 11
672431.676088543
 21
8403561.865744568
 31
0.0
100
AcDbAttribute
  2
BLOCK_ID
 70
1
  0
ATTRIB
  5
240
330
17
100
AcDbEntity
  8
0
100
AcDbText
 10
672431.676088543
 20
8403561.965744568
 30
0.0
 40
0.05
  1
TR128-T0
 11
672431.676088543
 21
8403561.965744568
 31
0.0
100
AcDbAttribute
  2
ID
 70
1
  0
SEQEND
  5
23E
330
23D
100
AcDbEntity
  8
APV - PV Tables
  0
INSERT
  5
241
330
17
100
AcDbEntity
  8
APV - PV Tables
100
AcDbBlockReference
 66
1
  2
table_main
 10
672436.176088543
 20
8403561.765744569
 30
0.0
  0
ATTRIB
  5
243
330
17
100
AcDbEntity
  8
0
100
AcDbText
 10
672436.676088543
 20
8403561.865744568
 30
0.0
 40
0.05
  1
0
 11
672436.676088543
 21
8403561.865744568
 31
0.0
100
AcDbAttribute
  2
BLOCK_ID
 70
1
  0
ATTRIB
  5
244
330
17
100
AcDbEntity
  8
0
100
AcDbText
 10
672436.676088543
 20
8403561.965744568
 30
0.0
 40
0.05
  1
TR129-T0
 11
672436.676088543
 21
8403561.965744568
 31
0.0
100
AcDbAttribute
  2
ID
 70
1
  0
SEQEND
  5
242
330
241
100
AcDbEntity
  8
APV - PV Tables
  0
INSERT
  5
245
330
17
100
AcDbEntity
  8
APV - PV Tables
100
AcDbBlockReference
 66
1
  2
table_main
 10
672441.176088543
 20
8403561.765744569
 30
0.0
  0
ATTRIB
  5
247
330
17
100
AcDbEntity
  8
0
100
AcDbText
 10
672441.676088543
 20
8403561.865744568
 30
0.0
 40
0.05
  1
0
 11
672441.676088543
 21
8403561.865744568
 31
0.0
100
AcDbAttribute
  2
BLOCK_ID
 70
1
  0
ATTRIB
  5
248
330
17
100
AcDbEntity
  8
0
100
AcDbText
 10
672441.676088543
 20
8403561.965744568
 30
0.0
 40
0.05
  1
TR130-T0
 11
672441.676088543
 21
8403561.965744568
 31
0.0
100
AcDbAttribute
  2
ID
 70
1
  0
SEQEND
  5
246
330
245
100
AcDbEntity
  8
APV - PV Tables
  0
INSERT
  5
249
330
17
100
AcDbEntity
  8
APV - PV Tables
100
AcDbBlockReference
 66
1
  2
table_main
 10
672446.176088543
 20
8403561.765744569
 30
0.0
  0
ATTRIB
  5
24B
330
17
100
AcDbEntity
  8
0
100
AcDbText
 10
672446.676088543
 20
8403561.865744568
 30
0.0
 40
0.05
  1
0
 11
672446.676088543
 21
8403561.865744568
 31
0.0
100
AcDbAttribute
  2
BLOCK_ID
 70
1
  0
ATTRIB
  5
24C
330
17
100
AcDbEntity
  8
0
100
AcDbText
 10
672446.676088543
 20
8403561.965744568
 30
0.0
 40
0.05
  1
TR131-T0
 11
672446.676088543
 21
8403561.965744568
 31
0.0
100
AcDbAttribute
  2
ID
 70
1
  0
SEQEND
  5
24A
330
249
100
AcDbEntity
  8
APV - PV Tables
  0
INSERT
  5
24D
330
17
100
AcDbEntity
  8
APV - PV Tables
100
AcDbBlockReference
 66
1
  2
table_main
 10
672451.176088543
 20
8403561.765744569
 30
0.0
  0
ATTRIB
  5
24F
330
17
100
AcDbEntity
  8
0
100
AcDbText
 10
672451.676088543
 20
8403561.865744568
 30
0.0
 40
0.05
  1
0
 11
672451.676088543
 21
8403561.865744568
 31
0.0
100
AcDbAttribute
  2
BLOCK_ID
 70
1
  0
ATTRIB
  5
250
330
17
100
AcDbEntity
  8
0
100
AcDbText
 10
672451.676088543
 20
8403561.965744568
 30
0.0
 40
0.05
  1
TR132-T0
 11
672451.676088543
 21
8403561.965744568
 31
0.0
100
AcDbAttribute
  2
ID
 70
1
  0
SEQEND
  5
24E
330
24D
100
AcDbEntity
  8
APV - PV Tables
  0
INSERT
  5
251
330
17
100
AcDbEntity
  8
APV - PV Tables
100
AcDbBlockReference
 66
1
  2
table_main
 10
672456.176088543
 20
8403561.765744569
 30
0.0
  0
ATTRIB
  5
253
330
17
100
AcDbEntity
  8
0
100
AcDbText
 10
672456.676088543
 20
8403561.865744568
 30
0.0
 40
0.05
  1
0
 11
672456.676088543
 21
8403561.865744568
 31
0.0
100
AcDbAttribute
  2
BLOCK_ID
 70
1
  0
ATTRIB
  5
254
330
17
100
AcDbEntity
  8
0
100
AcDbText
 10
672456.676088543
 20
8403561.965744568
 30
0.0
 40
0.05
  1
TR133-T0
 11
672456.676088543
 21
8403561.965744568
 31
0.0
100
AcDbAttribute
  2
ID
 70
1
  0
SEQEND
  5
252
330
251
100
AcDbEntity
  8
APV - PV Tables
  0
INSERT
  5
255
330
17
100
AcDbEntity
  8
APV - PV Tables
100
AcDbBlockReference
 66
1
  2
table_main
 10
672461.176088543
 20
8403561.765744569
 30
0.0
  0
ATTRIB
  5
257
330
17
100
AcDbEntity
  8
0
100
AcDbText
 10
672461.676088543
 20
8403561.865744568
 30
0.0
 40
0.05
  1
0
 11
672461.676088543
 21
8403561.865744568
 31
0.0
100
AcDbAttribute
  2
BLOCK_ID
 70
1
  0
ATTRIB
  5
258
330
17
100
AcDbEntity
  8
0
100
AcDbText
 10
672461.676088543
 20
8403561.965744568
 30
0.0
 40
0.05
  1
TR134-T0
 11
672461.676088543
 21
8403561.965744568
 31
0.0
100
AcDbAttribute
  2
ID
 70
1
  0
SEQEND
  5
256
330
255
100
AcDbEntity
  8
APV - PV Tables
  0
INSERT
  5
259
330
17
100
AcDbEntity
  8
APV - PV Tables
100
AcDbBlockReference
 66
1
  2
table_main
 10
672466.176088543
 20
8403561.765744569
 30
0.0
  0
ATTRIB
  5
25B
330
17
100
AcDbEntity
  8
0
100
AcDbText
 10
672466.676088543
 20
8403561.865744568
 30
0.0
 40
0.05
  1
0
 11
672466.676088543
 21
8403561.865744568
 31
0.0
100
AcDbAttribute
  2
BLOCK_ID
 70
1
  0
ATTRIB
  5
25C
330
17
100
AcDbEntity
  8
0
100
AcDbText
 10
672466.676088543
 20
8403561.965744568
 30
0.0
 40
0.05
  1
TR135-T0
 11
672466.676088543
 21
8403561.965744568
 31
0.0
100
AcDbAttribute
  2
ID
 70
1
  0
SEQEND
  5
25A
330
259
100
AcDbEntity
  8
APV - PV Tables
  0
INSERT
  5
25D
330
17
100
AcDbEntity
  8
APV - PV Tables
100
AcDbBlockReference
 66
1
  2
table_main
 10
672471.176088543
 20
8403561.765744569
 30
0.0
  0
ATTRIB
  5
25F
330
17
100
AcDbEntity
  8
0
100
AcDbText
 10
672471.676088543
 20
8403561.865744568
 30
0.0
 40
0.05
  1
0
 11
672471.676088543
 21
8403561.865744568
 31
0.0
100
AcDbAttribute
  2
BLOCK_ID
 70
1
  0
ATTRIB
  5
260
330
17
100
AcDbEntity
  8
0
100
AcDbText
 10
672471.676088543
 20
8403561.965744568
 30
0.0
 40
0.05
  1
TR136-T0
 11
672471.676088543
 21
8403561.965744568
 31
0.0
100
AcDbAttribute
  2
ID
 70
1
  0
SEQEND
  5
25E
330
25D
100
AcDbEntity
  8
APV - PV Tables
  0
INSERT
  5
261
330
17
100
AcDbEntity
  8
APV - PV Tables
100
AcDbBlockReference
 66
1
  2
table_main
 10
672476.176088543
 20
8403561.765744569
 30
0.0
  0
ATTRIB
  5
263
330
17
100
AcDbEntity
  8
0
100
AcDbText
 10
672476.676088543
 20
8403561.865744568
 30
0.0
 40
0.05
  1
0
 11
672476.676088543
 21
8403561.865744568
 31
0.0
100
AcDbAttribute
  2
BLOCK_ID
 70
1
  0
ATTRIB
  5
264
330
17
100
AcDbEntity
  8
0
100
AcDbText
 10
672476.676088543
 20
8403561.965744568
 30
0.0
 40
0.05
  1
TR137-T0
 11
672476.676088543
 21
8403561.965744568
 31
0.0
100
AcDbAttribute
  2
ID
 70
1
  0
SEQEND
  5
262
330
261
100
AcDbEntity
  8
APV - PV Tables
  0
INSERT
  5
265
330
17
100
AcDbEntity
  8
APV - PV Tables
100
AcDbBlockReference
 66
1
  2
table_main
 10
672481.176088543
 20
8403561.765744569
 30
0.0
  0
ATTRIB
  5
267
330
17
100
AcDbEntity
  8
0
100
AcDbText
 10
672481.676088543
 20
8403561.865744568
 30
0.0
 40
0.05
  1
0
 11
672481.676088543
 21
8403561.865744568
 31
0.0
100
AcDbAttribute
  2
BLOCK_ID
 70
1
  0
ATTRIB
  5
268
330
17
100
AcDbEntity
  8
0
100
AcDbText
 10
672481.676088543
 20
8403561.965744568
 30
0.0
 40
0.05
  1
TR138-T0
 11
672481.676088543
 21
8403561.965744568
 31
0.0
100
AcDbAttribute
  2
ID
 70
1
  0
SEQEND
  5
266
330
265
100
AcDbEntity
  8
APV - PV Tables
  0
INSERT
  5
269
330
17
100
AcDbEntity
  8
APV - PV Tables
100
AcDbBlockReference
 66
1
  2
table_main
 10
672486.176088543
 20
8403561.765744569
 30
0.0
  0
ATTRIB
  5
26B
330
17
100
AcDbEntity
  8
0
100
AcDbText
 10
672486.676088543
 20
8403561.865744568
 30
0.0
 40
0.05
  1
0
 11
672486.676088543
 21
8403561.865744568
 31
0.0
100
AcDbAttribute
  2
BLOCK_ID
 70
1
  0
ATTRIB
  5
26C
330
17
100
AcDbEntity
  8
0
100
AcDbText
 10
672486.676088543
 20
8403561.965744568
 30
0.0
 40
0.05
  1
TR139-T0
 11
672486.676088543
 21
8403561.965744568
 31
0.0
100
AcDbAttribute
  2
ID
 70
1
  0
SEQEND
  5
26A
330
269
100
AcDbEntity
  8
APV - PV Tables
  0
INSERT
  5
26D
330
17
100
AcDbEntity
  8
APV - PV Tables
100
AcDbBlockReference
 66
1
  2
table_main
 10
672491.176088543
 20
8403561.765744569
 30
0.0
  0
ATTRIB
  5
26F
330
17
100
AcDbEntity
  8
0
100
AcDbText
 10
672491.676088543
 20
8403561.865744568
 30
0.0
 40
0.05
  1
0
 11
672491.676088543
 21
8403561.865744568
 31
0.0
100
AcDbAttribute
  2
BLOCK_ID
 70
1
  0
ATTRIB
  5
270
330
17
100
AcDbEntity
  8
0
100
AcDbText
 10
672491.676088543
 20
8403561.965744568
 30
0.0
 40
0.05
  1
TR140-T0
 11
672491.676088543
 21
8403561.965744568
 31
0.0
100
AcDbAttribute
  2
ID
 70
1
  0
SEQEND
  5
26E
330
26D
100
AcDbEntity
  8
APV - PV Tables
  0
INSERT
  5
271
330
17
100
AcDbEntity
  8
APV - PV Tables
100
AcDbBlockReference
 66
1
  2
table_main
 10
672496.176088543
 20
8403561.765744569
 30
0.0
  0
ATTRIB
  5
273
330
17
100
AcDbEntity
  8
0
100
AcDbText
 10
672496.676088543
 20
8403561.865744568
 30
0.0
 40
0.05
  1
0
 11
672496.676088543
 21
8403561.865744568
 31
0.0
100
AcDbAttribute
  2
BLOCK_ID
 70
1
  0
ATTRIB
  5
274
330
17
100
AcDbEntity
  8
0
100
AcDbText
 10
672496.676088543
 20
8403561.965744568
 30
0.0
 40
0.05
  1
TR141-T0
 11
672496.676088543
 21
8403561.965744568
 31
0.0
100
AcDbAttribute
  2
ID
 70
1
  0
SEQEND
  5
272
330
271
100
AcDbEntity
  8
APV - PV Tables
  0
INSERT
  5
275
330
17
100
AcDbEntity
  8
APV - PV Tables
100
AcDbBlockReference
 66
1
  2
table_main
 10
672501.176088543
 20
8403561.765744569
 30
0.0
  0
ATTRIB
  5
277
330
17
100
AcDbEntity
  8
0
100
AcDbText
 10
672501.676088543
 20
8403561.865744568
 30
0.0
 40
0.05
  1
0
 11
672501.676088543
 21
8403561.865744568
 31
0.0
100
AcDbAttribute
  2
BLOCK_ID
 70
1
  0
ATTRIB
  5
278
330
17
100
AcDbEntity
  8
0
100
AcDbText
 10
672501.676088543
 20
8403561.965744568
 30
0.0
 40
0.05
  1
TR142-T0
 11
672501.676088543
 21
8403561.965744568
 31
0.0
100
AcDbAttribute
  2
ID
 70
1
  0
SEQEND
  5
276
330
275
100
AcDbEntity
  8
APV - PV Tables
  0
INSERT
  5
279
330
17
100
AcDbEntity
  8
APV - PV Tables
100
AcDbBlockReference
 66
1
  2
table_main
 10
672506.176088543
 20
8403561.765744569
 30
0.0
  0
ATTRIB
  5
27B
330
17
100
AcDbEntity
  8
0
100
AcDbText
 10
672506.676088543
 20
8403561.865744568
 30
0.0
 40
0.05
  1
0
 11
672506.676088543
 21
8403561.865744568
 31
0.0
100
AcDbAttribute
  2
BLOCK_ID
 70
1
  0
ATTRIB
  5
27C
330
17
100
AcDbEntity
  8
0
100
AcDbText
 10
672506.676088543
 20
8403561.965744568
 30
0.0
 40
0.05
  1
TR143-T0
 11
672506.676088543
 21
8403561.965744568
 31
0.0
100
AcDbAttribute
  2
ID
 70
1
  0
SEQEND
  5
27A
330
279
100
AcDbEntity
  8
APV - PV Tables
  0
INSERT
  5
27D
330
17
100
AcDbEntity
  8
APV - PV Tables
100
AcDbBlockReference
 66
1
  2
table_main
 10
672511.176088543
 20
8403561.765744569
 30
0.0
  0
ATTRIB
  5
27F
330
17
100
AcDbEntity
  8
0
100
AcDbText
 10
672511.676088543
 20
8403561.865744568
 30
0.0
 40
0.05
  1
0
 11
672511.676088543
 21
8403561.865744568
 31
0.0
100
AcDbAttribute
  2
BLOCK_ID
 70
1
  0
ATTRIB
  5
280
330
17
100
AcDbEntity
  8
0
100
AcDbText
 10
672511.676088543
 20
8403561.965744568
 30
0.0
 40
0.05
  1
TR144-T0
 11
672511.676088543
 21
8403561.965744568
 31
0.0
100
AcDbAttribute
  2
ID
 70
1
  0
SEQEND
  5
27E
330
27D
100
AcDbEntity
  8
APV - PV Tables
  0
INSERT
  5
281
330
17
100
AcDbEntity
  8
APV - PV Tables
100
AcDbBlockReference
 66
1
  2
table_main
 10
672516.176088543
 20
8403561.765744569
 30
0.0
  0
ATTRIB
  5
283
330
17
100
AcDbEntity
  8
0
100
AcDbText
 10
672516.676088543
 20
8403561.865744568
 30
0.0
 40
0.05
  1
0
 11
672516.676088543
 21
8403561.865744568
 31
0.0
100
AcDbAttribute
  2
BLOCK_ID
 70
1
  0
ATTRIB
  5
284
330
17
100
AcDbEntity
  8
0
100
AcDbText
 10
672516.676088543
 20
8403561.965744568
 30
0.0
 40
0.05
  1
TR145-T0
 11
672516.676088543
 21
8403561.965744568
 31
0.0
100
AcDbAttribute
  2
ID
 70
1
  0
SEQEND
  5
282
330
281
100
AcDbEntity
  8
APV - PV Tables
  0
INSERT
  5
285
330
17
100
AcDbEntity
  8
APV - PV Tables
100
AcDbBlockReference
 66
1
  2
table_main
 10
672521.176088543
 20
8403561.765744569
 30
0.0
  0
ATTRIB
  5
287
330
17
100
AcDbEntity
  8
0
100
AcDbText
 10
672521.676088543
 20
8403561.865744568
 30
0.0
 40
0.05
  1
0
 11
672521.676088543
 21
8403561.865744568
 31
0.0
100
AcDbAttribute
  2
BLOCK_ID
 70
1
  0
ATTRIB
  5
288
330
17
100
AcDbEntity
  8
0
100
AcDbText
 10
672521.676088543
 20
8403561.965744568
 30
0.0
 40
0.05
  1
TR146-T0
 11
672521.676088543
 21
8403561.965744568
 31
0.0
100
AcDbAttribute
  2
ID
 70
1
  0
SEQEND
  5
286
330
285
100
AcDbEntity
  8
APV - PV Tables
  0
INSERT
  5
289
330
17
100
AcDbEntity
  8
APV - PV Tables
100
AcDbBlockReference
 66
1
  2
table_main
 10
672526.176088543
 20
8403561.765744569
 30
0.0
  0
ATTRIB
  5
28B
330
17
100
AcDbEntity
  8
0
100
AcDbText
 10
672526.676088543
 20
8403561.865744568
 30
0.0
 40
0.05
  1
0
 11
672526.676088543
 21
8403561.865744568
 31
0.0
100
AcDbAttribute
  2
BLOCK_ID
 70
1
  0
ATTRIB
  5
28C
330
17
100
AcDbEntity
  8
0
100
AcDbText
 10
672526.676088543
 20
8403561.965744568
 30
0.0
 40
0.05
  1
TR147-T0
 11
672526.676088543
 21
8403561.965744568
 31
0.0
100
AcDbAttribute
  2
ID
 70
1
  0
SEQEND
  5
28A
330
289
100
AcDbEntity
  8
APV - PV Tables
  0
INSERT
  5
28D
330
17
100
AcDbEntity
  8
APV - PV Tables
100
AcDbBlockReference
 66
1
  2
table_main
 10
672531.176088543
 20
8403561.765744569
 30
0.0
  0
ATTRIB
  5
28F
330
17
100
AcDbEntity
  8
0
100
AcDbText
 10
672531.676088543
 20
8403561.865744568
 30
0.0
 40
0.05
  1
0
 11
672531.676088543
 21
8403561.865744568
 31
0.0
100
AcDbAttribute
  2
BLOCK_ID
 70
1
  0
ATTRIB
  5
290
330
17
100
AcDbEntity
  8
0
100
AcDbText
 10
672531.676088543
 20
8403561.965744568
 30
0.0
 40
0.05
  1
TR148-T0
 11
672531.676088543
 21
8403561.965744568
 31
0.0
100
AcDbAttribute
  2
ID
 70
1
  0
SEQEND
  5
28E
330
28D
100
AcDbEntity
  8
APV - PV Tables
  0
INSERT
  5
291
330
17
100
AcDbEntity
  8
APV - PV Tables
100
AcDbBlockReference
 66
1
  2
table_main
 10
672536.176088543
 20
8403561.765744569
 30
0.0
  0
ATTRIB
  5
293
330
17
100
AcDbEntity
  8
0
100
AcDbText
 10
672536.676088543
 20
8403561.865744568
 30
0.0
 40
0.05
  1
0
 11
672536.676088543
 21
8403561.865744568
 31
0.0
100
AcDbAttribute
  2
BLOCK_ID
 70
1
  0
ATTRIB
  5
294
330
17
100
AcDbEntity
  8
0
100
AcDbText
 10
672536.676088543
 20
8403561.965744568
 30
0.0
 40
0.05
  1
TR149-T0
 11
672536.676088543
 21
8403561.965744568
 31
0.0
100
AcDbAttribute
  2
ID
 70
1
  0
SEQEND
  5
292
330
291
100
AcDbEntity
  8
APV - PV Tables
  0
INSERT
  5
295
330
17
100
AcDbEntity
  8
APV - PV Tables
100
AcDbBlockReference
 66
1
  2
table_main
 10
672541.176088543
 20
8403561.765744569
 30
0.0
  0
ATTRIB
  5
297
330
17
100
AcDbEntity
  8
0
100
AcDbText
 10
672541.676088543
 20
8403561.865744568
 30
0.0
 40
0.05
  1
0
 11
672541.676088543
 21
8403561.865744568
 31
0.0
100
AcDbAttribute
  2
BLOCK_ID
 70
1
  0
ATTRIB
  5
298
330
17
100
AcDbEntity
  8
0
100
AcDbText
 10
672541.676088543
 20
8403561.965744568
 30
0.0
 40
0.05
  1
TR150-T0
 11
672541.676088543
 21
8403561.965744568
 31
0.0
100
AcDbAttribute
  2
ID
 70
1
  0
SEQEND
  5
296
330
295
100
AcDbEntity
  8
APV - PV Tables
  0
INSERT
  5
299
330
17
100
AcDbEntity
  8
APV - PV Tables
100
AcDbBlockReference
 66
1
  2
table_main
 10
672546.176088543
 20
8403561.765744569
 30
0.0
  0
ATTRIB
  5
29B
330
17
100
AcDbEntity
  8
0
100
AcDbText
 10
672546.676088543
 20
8403561.865744568
 30
0.0
 40
0.05
  1
0
 11
672546.676088543
 21
8403561.865744568
 31
0.0
100
AcDbAttribute
  2
BLOCK_ID
 70
1
  0
ATTRIB
  5
29C
330
17
100
AcDbEntity
  8
0
100
AcDbText
 10
672546.676088543
 20
8403561.965744568
 30
0.0
 40
0.05
  1
TR151-T0
 11
672546.676088543
 21
8403561.965744568
 31
0.0
100
AcDbAttribute
  2
ID
 70
1
  0
SEQEND
  5
29A
330
299
100
AcDbEntity
  8
APV - PV Tables
  0
INSERT
  5
29D
330
17
100
AcDbEntity
  8
APV - PV Tables
100
AcDbBlockReference
 66
1
  2
table_main
 10
672551.176088543
 20
8403561.765744569
 30
0.0
  0
ATTRIB
  5
29F
330
17
100
AcDbEntity
  8
0
100
AcDbText
 10
672551.676088543
 20
8403561.865744568
 30
0.0
 40
0.05
  1
0
 11
672551.676088543
 21
8403561.865744568
 31
0.0
100
AcDbAttribute
  2
BLOCK_ID
 70
1
  0
ATTRIB
  5
2A0
330
17
100
AcDbEntity
  8
0
100
AcDbText
 10
672551.676088543
 20
8403561.965744568
 30
0.0
 40
0.05
  1
TR152-T0
 11
672551.676088543
 21
8403561.965744568
 31
0.0
100
AcDbAttribute
  2
ID
 70
1
  0
SEQEND
  5
29E
330
29D
100
AcDbEntity
  8
APV - PV Tables
  0
INSERT
  5
2A1
330
17
100
AcDbEntity
  8
APV - PV Tables
100
AcDbBlockReference
 66
1
  2
table_main
 10
672556.176088543
 20
8403561.765744569
 30
0.0
  0
ATTRIB
  5
2A3
330
17
100
AcDbEntity
  8
0
100
AcDbText
 10
672556.676088543
 20
8403561.865744568
 30
0.0
 40
0.05
  1
0
 11
672556.676088543
 21
8403561.865744568
 31
0.0
100
AcDbAttribute
  2
BLOCK_ID
 70
1
  0
ATTRIB
  5
2A4
330
17
100
AcDbEntity
  8
0
100
AcDbText
 10
672556.676088543
 20
8403561.965744568
 30
0.0
 40
0.05
  1
TR153-T0
 11
672556.676088543
 21
8403561.965744568
 31
0.0
100
AcDbAttribute
  2
ID
 70
1
  0
SEQEND
  5
2A2
330
2A1
100
AcDbEntity
  8
APV - PV Tables
  0
INSERT
  5
2A5
330
17
100
AcDbEntity
  8
APV - PV Tables
100
AcDbBlockReference
 66
1
  2
table_main
 10
672561.176088543
 20
8403561.765744569
 30
0.0
  0
ATTRIB
  5
2A7
330
17
100
AcDbEntity
  8
0
100
AcDbText
 10
672561.676088543
 20
8403561.865744568
 30
0.0
 40
0.05
  1
0
 11
672561.676088543
 21
8403561.865744568
 31
0.0
100
AcDbAttribute
  2
BLOCK_ID
 70
1
  0
ATTRIB
  5
2A8
330
17
100
AcDbEntity
  8
0
100
AcDbText
 10
672561.676088543
 20
8403561.965744568
 30
0.0
 40
0.05
  1
TR154-T0
 11
672561.676088543
 21
8403561.965744568
 31
0.0
100
AcDbAttribute
  2
ID
 70
1
  0
SEQEND
  5
2A6
330
2A5
100
AcDbEntity
  8
APV - PV Tables
  0
INSERT
  5
2A9
330
17
100
AcDbEntity
  8
APV - PV Tables
100
AcDbBlockReference
 66
1
  2
table_main
 10
672566.176088543
 20
8403561.765744569
 30
0.0
  0
ATTRIB
  5
2AB
330
17
100
AcDbEntity
  8
0
100
AcDbText
 10
672566.676088543
 20
8403561.865744568
 30
0.0
 40
0.05
  1
0
 11
672566.676088543
 21
8403561.865744568
 31
0.0
100
AcDbAttribute
  2
BLOCK_ID
 70
1
  0
ATTRIB
  5
2AC
330
17
100
AcDbEntity
  8
0
100
AcDbText
 10
672566.676088543
 20
8403561.965744568
 30
0.0
 40
0.05
  1
TR155-T0
 11
672566.676088543
 21
8403561.965744568
 31
0.0
100
AcDbAttribute
  2
ID
 70
1
  0
SEQEND
  5
2AA
330
2A9
100
AcDbEntity
  8
APV - PV Tables
  0
INSERT
  5
2AD
330
17
100
AcDbEntity
  8
APV - PV Tables
100
AcDbBlockReference
 66
1
  2
table_main
 10
672571.176088543
 20
8403561.765744569
 30
0.0
  0
ATTRIB
  5
2AF
330
17
100
AcDbEntity
  8
0
100
AcDbText
 10
672571.676088543
 20
8403561.865744568
 30
0.0
 40
0.05
  1
0
 11
672571.676088543
 21
8403561.865744568
 31
0.0
100
AcDbAttribute
  2
BLOCK_ID
 70
1
  0
ATTRIB
  5
2B0
330
17
100
AcDbEntity
  8
0
100
AcDbText
 10
672571.676088543
 20
8403561.965744568
 30
0.0
 40
0.05
  1
TR156-T0
 11
672571.676088543
 21
8403561.965744568
 31
0.0
100
AcDbAttribute
  2
ID
 70
1
  0
SEQEND
  5
2AE
330
2AD
100
AcDbEntity
  8
APV - PV Tables
  0
INSERT
  5
2B1
330
17
100
AcDbEntity
  8
APV - PV Tables
100
AcDbBlockReference
 66
1
  2
table_main
 10
672576.176088543
 20
8403561.765744569
 30
0.0
  0
ATTRIB
  5
2B3
330
17
100
AcDbEntity
  8
0
100
AcDbText
 10
672576.676088543
 20
8403561.865744568
 30
0.0
 40
0.05
  1
0
 11
672576.676088543
 21
8403561.865744568
 31
0.0
100
AcDbAttribute
  2
BLOCK_ID
 70
1
  0
ATTRIB
  5
2B4
330
17
100
AcDbEntity
  8
0
100
AcDbText
 10
672576.676088543
 20
8403561.965744568
 30
0.0
 40
0.05
  1
TR157-T0
 11
672576.676088543
 21
8403561.965744568
 31
0.0
100
AcDbAttribute
  2
ID
 70
1
  0
SEQEND
  5
2B2
330
2B1
100
AcDbEntity
  8
APV - PV Tables
  0
INSERT
  5
2B5
330
17
100
AcDbEntity
  8
APV - PV Tables
100
AcDbBlockReference
 66
1
  2
table_main
 10
672581.176088543
 20
8403561.765744569
 30
0.0
  0
ATTRIB
  5
2B7
330
17
100
AcDbEntity
  8
0
100
AcDbText
 10
672581.676088543
 20
8403561.865744568
 30
0.0
 40
0.05
  1
0
 11
672581.676088543
 21
8403561.865744568
 31
0.0
100
AcDbAttribute
  2
BLOCK_ID
 70
1
  0
ATTRIB
  5
2B8
330
17
100
AcDbEntity
  8
0
100
AcDbText
 10
672581.676088543
 20
8403561.965744568
 30
0.0
 40
0.05
  1
TR158-T0
 11
672581.676088543
 21
8403561.965744568
 31
0.0
100
AcDbAttribute
  2
ID
 70
1
  0
SEQEND
  5
2B6
330
2B5
100
AcDbEntity
  8
APV - PV Tables
  0
INSERT
  5
2B9
330
17
100
AcDbEntity
  8
APV - PV Tables
100
AcDbBlockReference
 66
1
  2
table_main
 10
672586.176088543
 20
8403561.765744569
 30
0.0
  0
ATTRIB
  5
2BB
330
17
100
AcDbEntity
  8
0
100
AcDbText
 10
672586.676088543
 20
8403561.865744568
 30
0.0
 40
0.05
  1
0
 11
672586.676088543
 21
8403561.865744568
 31
0.0
100
AcDbAttribute
  2
BLOCK_ID
 70
1
  0
ATTRIB
  5
2BC
330
17
100
AcDbEntity
  8
0
100
AcDbText
 10
672586.676088543
 20
8403561.965744568
 30
0.0
 40
0.05
  1
TR159-T0
 11
672586.676088543
 21
8403561.965744568
 31
0.0
100
AcDbAttribute
  2
ID
 70
1
  0
SEQEND
  5
2BA
330
2B9
100
AcDbEntity
  8
APV - PV Tables
  0
INSERT
  5
2BD
330
17
100
AcDbEntity
  8
APV - PV Tables
100
AcDbBlockReference
 66
1
  2
table_main
 10
672591.176088543
 20
8403561.765744569
 30
0.0
  0
ATTRIB
  5
2BF
330
17
100
AcDbEntity
  8
0
100
AcDbText
 10
672591.676088543
 20
8403561.865744568
 30
0.0
 40
0.05
  1
0
 11
672591.676088543
 21
8403561.865744568
 31
0.0
100
AcDbAttribute
  2
BLOCK_ID
 70
1
  0
ATTRIB
  5
2C0
330
17
100
AcDbEntity
  8
0
100
AcDbText
 10
672591.676088543
 20
8403561.965744568
 30
0.0
 40
0.05
  1
TR160-T0
 11
672591.676088543
 21
8403561.965744568
 31
0.0
100
AcDbAttribute
  2
ID
 70
1
  0
SEQEND
  5
2BE
330
2BD
100
AcDbEntity
  8
APV - PV Tables
  0
INSERT
  5
2C1
330
17
100
AcDbEntity
  8
APV - PV Tables
100
AcDbBlockReference
 66
1
  2
table_main
 10
672596.176088543
 20
8403561.765744569
 30
0.0
  0
ATTRIB
  5
2C3
330
17
100
AcDbEntity
  8
0
100
AcDbText
 10
672596.676088543
 20
8403561.865744568
 30
0.0
 40
0.05
  1
0
 11
672596.676088543
 21
8403561.865744568
 31
0.0
100
AcDbAttribute
  2
BLOCK_ID
 70
1
  0
ATTRIB
  5
2C4
330
17
100
AcDbEntity
  8
0
100
AcDbText
 10
672596.676088543
 20
8403561.965744568
 30
0.0
 40
0.05
  1
TR161-T0
 11
672596.676088543
 21
8403561.965744568
 31
0.0
100
AcDbAttribute
  2
ID
 70
1
  0
SEQEND
  5
2C2
330
2C1
100
AcDbEntity
  8
APV - PV Tables
  0
INSERT
  5
2C5
330
17
100
AcDbEntity
  8
APV - PV Tables
100
AcDbBlockReference
 66
1
  2
table_main
 10
672601.176088543
 20
8403561.765744569
 30
0.0
  0
ATTRIB
  5
2C7
330
17
100
AcDbEntity
  8
0
100
AcDbText
 10
672601.676088543
 20
8403561.865744568
 30
0.0
 40
0.05
  1
0
 11
672601.676088543
 21
8403561.865744568
 31
0.0
100
AcDbAttribute
  2
BLOCK_ID
 70
1
  0
ATTRIB
  5
2C8
330
17
100
AcDbEntity
  8
0
100
AcDbText
 10
672601.676088543
 20
8403561.965744568
 30
0.0
 40
0.05
  1
TR162-T0
 11
672601.676088543
 21
8403561.965744568
 31
0.0
100
AcDbAttribute
  2
ID
 70
1
  0
SEQEND
  5
2C6
330
2C5
100
AcDbEntity
  8
APV - PV Tables
  0
INSERT
  5
2C9
330
17
100
AcDbEntity
  8
APV - PV Tables
100
AcDbBlockReference
 66
1
  2
table_main
 10
672606.176088543
 20
8403561.765744569
 30
0.0
  0
ATTRIB
  5
2CB
330
17
100
AcDbEntity
  8
0
100
AcDbText
 10
672606.676088543
 20
8403561.865744568
 30
0.0
 40
0.05
  1
0
 11
672606.676088543
 21
8403561.865744568
 31
0.0
100
AcDbAttribute
  2
BLOCK_ID
 70
1
  0
ATTRIB
  5
2CC
330
17
100
AcDbEntity
  8
0
100
AcDbText
 10
672606.676088543
 20
8403561.965744568
 30
0.0
 40
0.05
  1
TR163-T0
 11
672606.676088543
 21
8403561.965744568
 31
0.0
100
AcDbAttribute
  2
ID
 70
1
  0
SEQEND
  5
2CA
330
2C9
100
AcDbEntity
  8
APV - PV Tables
  0
INSERT
  5
2CD
330
17
100
AcDbEntity
  8
APV - PV Tables
100
AcDbBlockReference
 66
1
  2
table_main
 10
672611.176088543
 20
8403561.765744569
 30
0.0
  0
ATTRIB
  5
2CF
330
17
100
AcDbEntity
  8
0
100
AcDbText
 10
672611.676088543
 20
8403561.865744568
 30
0.0
 40
0.05
  1
0
 11
672611.676088543
 21
8403561.865744568
 31
0.0
100
AcDbAttribute
  2
BLOCK_ID
 70
1
  0
ATTRIB
  5
2D0
330
17
100
AcDbEntity
  8
0
100
AcDbText
 10
672611.676088543
 20
8403561.965744568
 30
0.0
 40
0.05
  1
TR164-T0
 11
672611.676088543
 21
8403561.965744568
 31
0.0
100
AcDbAttribute
  2
ID
 70
1
  0
SEQEND
  5
2CE
330
2CD
100
AcDbEntity
  8
APV - PV Tables
  0
INSERT
  5
2D1
330
17
100
AcDbEntity
  8
APV - PV Tables
100
AcDbBlockReference
 66
1
  2
table_main
 10
672616.176088543
 20
8403561.765744569
 30
0.0
  0
ATTRIB
  5
2D3
330
17
100
AcDbEntity
  8
0
100
AcDbText
 10
672616.676088543
 20
8403561.865744568
 30
0.0
 40
0.05
  1
0
 11
672616.676088543
 21
8403561.865744568
 31
0.0
100
AcDbAttribute
  2
BLOCK_ID
 70
1
  0
ATTRIB
  5
2D4
330
17
100
AcDbEntity
  8
0
100
AcDbText
 10
672616.676088543
 20
8403561.965744568
 30
0.0
 40
0.05
  1
TR165-T0
 11
672616.676088543
 21
8403561.965744568
 31
0.0
100
AcDbAttribute
  2
ID
 70
1
  0
SEQEND
  5
2D2
330
2D1
100
AcDbEntity
  8
APV - PV Tables
  0
INSERT
  5
2D5
330
17
100
AcDbEntity
  8
APV - PV Tables
100
AcDbBlockReference
 66
1
  2
table_main
 10
672621.176088543
 20
8403561.765744569
 30
0.0
  0
ATTRIB
  5
2D7
330
17
100
AcDbEntity
  8
0
100
AcDbText
 10
672621.676088543
 20
8403561.865744568
 30
0.0
 40
0.05
  1
0
 11
672621.676088543
 21
8403561.865744568
 31
0.0
100
AcDbAttribute
  2
BLOCK_ID
 70
1
  0
ATTRIB
  5
2D8
330
17
100
AcDbEntity
  8
0
100
AcDbText
 10
672621.676088543
 20
8403561.965744568
 30
0.0
 40
0.05
  1
TR166-T0
 11
672621.676088543
 21
8403561.965744568
 31
0.0
100
AcDbAttribute
  2
ID
 70
1
  0
SEQEND
  5
2D6
330
2D5
100
AcDbEntity
  8
APV - PV Tables
  0
INSERT
  5
2D9
330
17
100
AcDbEntity
  8
APV - PV Tables
100
AcDbBlockReference
 66
1
  2
table_main
 10
672626.176088543
 20
8403561.765744569
 30
0.0
  0
ATTRIB
  5
2DB
330
17
100
AcDbEntity
  8
0
100
AcDbText
 10
672626.676088543
 20
8403561.865744568
 30
0.0
 40
0.05
  1
0
 11
672626.676088543
 21
8403561.865744568
 31
0.0
100
AcDbAttribute
  2
BLOCK_ID
 70
1
  0
ATTRIB
  5
2DC
330
17
100
AcDbEntity
  8
0
100
AcDbText
 10
672626.676088543
 20
8403561.965744568
 30
0.0
 40
0.05
  1
TR167-T0
 11
672626.676088543
 21
8403561.965744568
 31
0.0
100
AcDbAttribute
  2
ID
 70
1
  0
SEQEND
  5
2DA
330
2D9
100
AcDbEntity
  8
APV - PV Tables
  0
INSERT
  5
2DD
330
17
100
AcDbEntity
  8
APV - PV Tables
100
AcDbBlockReference
 66
1
  2
table_main
 10
672631.176088543
 20
8403561.765744569
 30
0.0
  0
ATTRIB
  5
2DF
330
17
100
AcDbEntity
  8
0
100
AcDbText
 10
672631.676088543
 20
8403561.865744568
 30
0.0
 40
0.05
  1
0
 11
672631.676088543
 21
8403561.865744568
 31
0.0
100
AcDbAttribute
  2
BLOCK_ID
 70
1
  0
ATTRIB
  5
2E0
330
17
100
AcDbEntity
  8
0
100
AcDbText
 10
672631.676088543
 20
8403561.965744568
 30
0.0
 40
0.05
  1
TR168-T0
 11
672631.676088543
 21
8403561.965744568
 31
0.0
100
AcDbAttribute
  2
ID
 70
1
  0
SEQEND
  5
2DE
330
2DD
100
AcDbEntity
  8
APV - PV Tables
  0
INSERT
  5
2E1
330
17
100
AcDbEntity
  8
APV - PV Tables
100
AcDbBlockReference
 66
1
  2
table_main
 10
672636.176088543
 20
8403561.765744569
 30
0.0
  0
ATTRIB
  5
2E3
330
17
100
AcDbEntity
  8
0
100
AcDbText
 10
672636.676088543
 20
8403561.865744568
 30
0.0
 40
0.05
  1
0
 11
672636.676088543
 21
8403561.865744568
 31
0.0
100
AcDbAttribute
  2
BLOCK_ID
 70
1
  0
ATTRIB
  5
2E4
330
17
100
AcDbEntity
  8
0
100
AcDbText
 10
672636.676088543
 20
8403561.965744568
 30
0.0
 40
0.05
  1
TR169-T0
 11
672636.676088543
 21
8403561.965744568
 31
0.0
100
AcDbAttribute
  2
ID
 70
1
  0
SEQEND
  5
2E2
330
2E1
100
AcDbEntity
  8
APV - PV Tables
  0
INSERT
  5
2E5
330
17
100
AcDbEntity
  8
APV - PV Tables
100
AcDbBlockReference
 66
1
  2
table_main
 10
672641.176088543
 20
8403561.765744569
 30
0.0
  0
ATTRIB
  5
2E7
330
17
100
AcDbEntity
  8
0
100
AcDbText
 10
672641.676088543
 20
8403561.865744568
 30
0.0
 40
0.05
  1
0
 11
672641.676088543
 21
8403561.865744568
 31
0.0
100
AcDbAttribute
  2
BLOCK_ID
 70
1
  0
ATTRIB
  5
2E8
330
17
100
AcDbEntity
  8
0
100
AcDbText
 10
672641.676088543
 20
8403561.965744568
 30
0.0
 40
0.05
  1
TR170-T0
 11
672641.676088543
 21
8403561.965744568
 31
0.0
100
AcDbAttribute
  2
ID
 70
1
  0
SEQEND
  5
2E6
330
2E5
100
AcDbEntity
  8
APV - PV Tables
  0
INSERT
  5
2E9
330
17
100
AcDbEntity
  8
APV - PV Tables
100
AcDbBlockReference
 66
1
  2
table_main
 10
672381.176088543
 20
8403663.681744568
 30
0.0
  0
ATTRIB
  5
2EB
330
17
100
AcDbEntity
  8
0
100
AcDbText
 10
672381.676088543
 20
8403663.781744568
 30
0.0
 40
0.05
  1
0
 11
672381.676088543
 21
8403663.781744568
 31
0.0
100
AcDbAttribute
  2
BLOCK_ID
 70
1
  0
ATTRIB
  5
2EC
330
17
100
AcDbEntity
  8
0
100
AcDbText
 10
672381.676088543
 20
8403663.881744567
 30
0.0
 40
0.05
  1
TR171-T0
 11
672381.676088543
 21
8403663.881744567
 31
0.0
100
AcDbAttribute
  2
ID
 70
1
  0
SEQEND
  5
2EA
330
2E9
100
AcDbEntity
  8
APV - PV Tables
  0
INSERT
  5
2ED
330
17
100
AcDbEntity
  8
APV - PV Tables
100
AcDbBlockReference
 66
1
  2
table_main
 10
672386.176088543
 20
8403663.681744568
 30
0.0
  0
ATTRIB
  5
2EF
330
17
100
AcDbEntity
  8
0
100
AcDbText
 10
672386.676088543
 20
8403663.781744568
 30
0.0
 40
0.05
  1
0
 11
672386.676088543
 21
8403663.781744568
 31
0.0
100
AcDbAttribute
  2
BLOCK_ID
 70
1
  0
ATTRIB
  5
2F0
330
17
100
AcDbEntity
  8
0
100
AcDbText
 10
672386.676088543
 20
8403663.881744567
 30
0.0
 40
0.05
  1
TR172-T0
 11
672386.676088543
 21
8403663.881744567
 31
0.0
100
AcDbAttribute
  2
ID
 70
1
  0
SEQEND
  5
2EE
330
2ED
100
AcDbEntity
  8
APV - PV Tables
  0
INSERT
  5
2F1
330
17
100
AcDbEntity
  8
APV - PV Tables
100
AcDbBlockReference
 66
1
  2
table_main
 10
672391.176088543
 20
8403663.681744568
 30
0.0
  0
ATTRIB
  5
2F3
330
17
100
AcDbEntity
  8
0
100
AcDbText
 10
672391.676088543
 20
8403663.781744568
 30
0.0
 40
0.05
  1
0
 11
672391.676088543
 21
8403663.781744568
 31
0.0
100
AcDbAttribute
  2
BLOCK_ID
 70
1
  0
ATTRIB
  5
2F4
330
17
100
AcDbEntity
  8
0
100
AcDbText
 10
672391.676088543
 20
8403663.881744567
 30
0.0
 40
0.05
  1
TR173-T0
 11
672391.676088543
 21
8403663.881744567
 31
0.0
100
AcDbAttribute
  2
ID
 70
1
  0
SEQEND
  5
2F2
330
2F1
100
AcDbEntity
  8
APV - PV Tables
  0
INSERT
  5
2F5
330
17
100
AcDbEntity
  8
APV - PV Tables
100
AcDbBlockReference
 66
1
  2
table_main
 10
672396.176088543
 20
8403663.681744568
 30
0.0
  0
ATTRIB
  5
2F7
330
17
100
AcDbEntity
  8
0
100
AcDbText
 10
672396.676088543
 20
8403663.781744568
 30
0.0
 40
0.05
  1
0
 11
672396.676088543
 21
8403663.781744568
 31
0.0
100
AcDbAttribute
  2
BLOCK_ID
 70
1
  0
ATTRIB
  5
2F8
330
17
100
AcDbEntity
  8
0
100
AcDbText
 10
672396.676088543
 20
8403663.881744567
 30
0.0
 40
0.05
  1
TR174-T0
 11
672396.676088543
 21
8403663.881744567
 31
0.0
100
AcDbAttribute
  2
ID
 70
1
  0
SEQEND
  5
2F6
330
2F5
100
AcDbEntity
  8
APV - PV Tables
  0
INSERT
  5
2F9
330
17
100
AcDbEntity
  8
APV - PV Tables
100
AcDbBlockReference
 66
1
  2
table_main
 10
672401.176088543
 20
8403663.681744568
 30
0.0
  0
ATTRIB
  5
2FB
330
17
100
AcDbEntity
  8
0
100
AcDbText
 10
672401.676088543
 20
8403663.781744568
 30
0.0
 40
0.05
  1
0
 11
672401.676088543
 21
8403663.781744568
 31
0.0
100
AcDbAttribute
  2
BLOCK_ID
 70
1
  0
ATTRIB
  5
2FC
330
17
100
AcDbEntity
  8
0
100
AcDbText
 10
672401.676088543
 20
8403663.881744567
 30
0.0
 40
0.05
  1
TR175-T0
 11
672401.676088543
 21
8403663.881744567
 31
0.0
100
AcDbAttribute
  2
ID
 70
1
  0
SEQEND
  5
2FA
330
2F9
100
AcDbEntity
  8
APV - PV Tables
  0
INSERT
  5
2FD
330
17
100
AcDbEntity
  8
APV - PV Tables
100
AcDbBlockReference
 66
1
  2
table_main
 10
672406.176088543
 20
8403663.681744568
 30
0.0
  0
ATTRIB
  5
2FF
330
17
100
AcDbEntity
  8
0
100
AcDbText
 10
672406.676088543
 20
8403663.781744568
 30
0.0
 40
0.05
  1
0
 11
672406.676088543
 21
8403663.781744568
 31
0.0
100
AcDbAttribute
  2
BLOCK_ID
 70
1
  0
ATTRIB
  5
300
330
17
100
AcDbEntity
  8
0
100
AcDbText
 10
672406.676088543
 20
8403663.881744567
 30
0.0
 40
0.05
  1
TR176-T0
 11
672406.676088543
 21
8403663.881744567
 31
0.0
100
AcDbAttribute
  2
ID
 70
1
  0
SEQEND
  5
2FE
330
2FD
100
AcDbEntity
  8
APV - PV Tables
  0
INSERT
  5
301
330
17
100
AcDbEntity
  8
APV - PV Tables
100
AcDbBlockReference
 66
1
  2
table_main
 10
672411.176088543
 20
8403663.681744568
 30
0.0
  0
ATTRIB
  5
303
330
17
100
AcDbEntity
  8
0
100
AcDbText
 10
672411.676088543
 20
8403663.781744568
 30
0.0
 40
0.05
  1
0
 11
672411.676088543
 21
8403663.781744568
 31
0.0
100
AcDbAttribute
  2
BLOCK_ID
 70
1
  0
ATTRIB
  5
304
330
17
100
AcDbEntity
  8
0
100
AcDbText
 10
672411.676088543
 20
8403663.881744567
 30
0.0
 40
0.05
  1
TR177-T0
 11
672411.676088543
 21
8403663.881744567
 31
0.0
100
AcDbAttribute
  2
ID
 70
1
  0
SEQEND
  5
302
330
301
100
AcDbEntity
  8
APV - PV Tables
  0
INSERT
  5
305
330
17
100
AcDbEntity
  8
APV - PV Tables
100
AcDbBlockReference
 66
1
  2
table_main
 10
672416.176088543
 20
8403663.681744568
 30
0.0
  0
ATTRIB
  5
307
330
17
100
AcDbEntity
  8
0
100
AcDbText
 10
672416.676088543
 20
8403663.781744568
 30
0.0
 40
0.05
  1
0
 11
672416.676088543
 21
8403663.781744568
 31
0.0
100
AcDbAttribute
  2
BLOCK_ID
 70
1
  0
ATTRIB
  5
308
330
17
100
AcDbEntity
  8
0
100
AcDbText
 10
672416.676088543
 20
8403663.881744567
 30
0.0
 40
0.05
  1
TR178-T0
 11
672416.676088543
 21
8403663.881744567
 31
0.0
100
AcDbAttribute
  2
ID
 70
1
  0
SEQEND
  5
306
330
305
100
AcDbEntity
  8
APV - PV Tables
  0
INSERT
  5
309
330
17
100
AcDbEntity
  8
APV - PV Tables
100
AcDbBlockReference
 66
1
  2
table_main
 10
672421.176088543
 20
8403663.681744568
 30
0.0
  0
ATTRIB
  5
30B
330
17
100
AcDbEntity
  8
0
100
AcDbText
 10
672421.676088543
 20
8403663.781744568
 30
0.0
 40
0.05
  1
0
 11
672421.676088543
 21
8403663.781744568
 31
0.0
100
AcDbAttribute
  2
BLOCK_ID
 70
1
  0
ATTRIB
  5
30C
330
17
100
AcDbEntity
  8
0
100
AcDbText
 10
672421.676088543
 20
8403663.881744567
 30
0.0
 40
0.05
  1
TR179-T0
 11
672421.676088543
 21
8403663.881744567
 31
0.0
100
AcDbAttribute
  2
ID
 70
1
  0
SEQEND
  5
30A
330
309
100
AcDbEntity
  8
APV - PV Tables
  0
INSERT
  5
30D
330
17
100
AcDbEntity
  8
APV - PV Tables
100
AcDbBlockReference
 66
1
  2
table_main
 10
672426.176088543
 20
8403663.681744568
 30
0.0
  0
ATTRIB
  5
30F
330
17
100
AcDbEntity
  8
0
100
AcDbText
 10
672426.676088543
 20
8403663.781744568
 30
0.0
 40
0.05
  1
0
 11
672426.676088543
 21
8403663.781744568
 31
0.0
100
AcDbAttribute
  2
BLOCK_ID
 70
1
  0
ATTRIB
  5
310
330
17
100
AcDbEntity
  8
0
100
AcDbText
 10
672426.676088543
 20
8403663.881744567
 30
0.0
 40
0.05
  1
TR180-T0
 11
672426.676088543
 21
8403663.881744567
 31
0.0
100
AcDbAttribute
  2
ID
 70
1
  0
SEQEND
  5
30E
330
30D
100
AcDbEntity
  8
APV - PV Tables
  0
INSERT
  5
311
330
17
100
AcDbEntity
  8
APV - PV Tables
100
AcDbBlockReference
 66
1
  2
table_main
 10
672431.176088543
 20
8403663.681744568
 30
0.0
  0
ATTRIB
  5
313
330
17
100
AcDbEntity
  8
0
100
AcDbText
 10
672431.676088543
 20
8403663.781744568
 30
0.0
 40
0.05
  1
0
 11
672431.676088543
 21
8403663.781744568
 31
0.0
100
AcDbAttribute
  2
BLOCK_ID
 70
1
  0
ATTRIB
  5
314
330
17
100
AcDbEntity
  8
0
100
AcDbText
 10
672431.676088543
 20
8403663.881744567
 30
0.0
 40
0.05
  1
TR181-T0
 11
672431.676088543
 21
8403663.881744567
 31
0.0
100
AcDbAttribute
  2
ID
 70
1
  0
SEQEND
  5
312
330
311
100
AcDbEntity
  8
APV - PV Tables
  0
INSERT
  5
315
330
17
100
AcDbEntity
  8
APV - PV Tables
100
AcDbBlockReference
 66
1
  2
table_main
 10
672436.176088543
 20
8403663.681744568
 30
0.0
  0
ATTRIB
  5
317
330
17
100
AcDbEntity
  8
0
100
AcDbText
 10
672436.676088543
 20
8403663.781744568
 30
0.0
 40
0.05
  1
0
 11
672436.676088543
 21
8403663.781744568
 31
0.0
100
AcDbAttribute
  2
BLOCK_ID
 70
1
  0
ATTRIB
  5
318
330
17
100
AcDbEntity
  8
0
100
AcDbText
 10
672436.676088543
 20
8403663.881744567
 30
0.0
 40
0.05
  1
TR182-T0
 11
672436.676088543
 21
8403663.881744567
 31
0.0
100
AcDbAttribute
  2
ID
 70
1
  0
SEQEND
  5
316
330
315
100
AcDbEntity
  8
APV - PV Tables
  0
INSERT
  5
319
330
17
100
AcDbEntity
  8
APV - PV Tables
100
AcDbBlockReference
 66
1
  2
table_main
 10
672441.176088543
 20
8403663.681744568
 30
0.0
  0
ATTRIB
  5
31B
330
17
100
AcDbEntity
  8
0
100
AcDbText
 10
672441.676088543
 20
8403663.781744568
 30
0.0
 40
0.05
  1
0
 11
672441.676088543
 21
8403663.781744568
 31
0.0
100
AcDbAttribute
  2
BLOCK_ID
 70
1
  0
ATTRIB
  5
31C
330
17
100
AcDbEntity
  8
0
100
AcDbText
 10
672441.676088543
 20
8403663.881744567
 30
0.0
 40
0.05
  1
TR183-T0
 11
672441.676088543
 21
8403663.881744567
 31
0.0
100
AcDbAttribute
  2
ID
 70
1
  0
SEQEND
  5
31A
330
319
100
AcDbEntity
  8
APV - PV Tables
  0
INSERT
  5
31D
330
17
100
AcDbEntity
  8
APV - PV Tables
100
AcDbBlockReference
 66
1
  2
table_main
 10
672446.176088543
 20
8403663.681744568
 30
0.0
  0
ATTRIB
  5
31F
330
17
100
AcDbEntity
  8
0
100
AcDbText
 10
672446.676088543
 20
8403663.781744568
 30
0.0
 40
0.05
  1
0
 11
672446.676088543
 21
8403663.781744568
 31
0.0
100
AcDbAttribute
  2
BLOCK_ID
 70
1
  0
ATTRIB
  5
320
330
17
100
AcDbEntity
  8
0
100
AcDbText
 10
672446.676088543
 20
8403663.881744567
 30
0.0
 40
0.05
  1
TR184-T0
 11
672446.676088543
 21
8403663.881744567
 31
0.0
100
AcDbAttribute
  2
ID
 70
1
  0
SEQEND
  5
31E
330
31D
100
AcDbEntity
  8
APV - PV Tables
  0
INSERT
  5
321
330
17
100
AcDbEntity
  8
APV - PV Tables
100
AcDbBlockReference
 66
1
  2
table_main
 10
672451.176088543
 20
8403663.681744568
 30
0.0
  0
ATTRIB
  5
323
330
17
100
AcDbEntity
  8
0
100
AcDbText
 10
672451.676088543
 20
8403663.781744568
 30
0.0
 40
0.05
  1
0
 11
672451.676088543
 21
8403663.781744568
 31
0.0
100
AcDbAttribute
  2
BLOCK_ID
 70
1
  0
ATTRIB
  5
324
330
17
100
AcDbEntity
  8
0
100
AcDbText
 10
672451.676088543
 20
8403663.881744567
 30
0.0
 40
0.05
  1
TR185-T0
 11
672451.676088543
 21
8403663.881744567
 31
0.0
100
AcDbAttribute
  2
ID
 70
1
  0
SEQEND
  5
322
330
321
100
AcDbEntity
  8
APV - PV Tables
  0
INSERT
  5
325
330
17
100
AcDbEntity
  8
APV - PV Tables
100
AcDbBlockReference
 66
1
  2
table_main
 10
672456.176088543
 20
8403663.681744568
 30
0.0
  0
ATTRIB
  5
327
330
17
100
AcDbEntity
  8
0
100
AcDbText
 10
672456.676088543
 20
8403663.781744568
 30
0.0
 40
0.05
  1
0
 11
672456.676088543
 21
8403663.781744568
 31
0.0
100
AcDbAttribute
  2
BLOCK_ID
 70
1
  0
ATTRIB
  5
328
330
17
100
AcDbEntity
  8
0
100
AcDbText
 10
672456.676088543
 20
8403663.881744567
 30
0.0
 40
0.05
  1
TR186-T0
 11
672456.676088543
 21
8403663.881744567
 31
0.0
100
AcDbAttribute
  2
ID
 70
1
  0
SEQEND
  5
326
330
325
100
AcDbEntity
  8
APV - PV Tables
  0
INSERT
  5
329
330
17
100
AcDbEntity
  8
APV - PV Tables
100
AcDbBlockReference
 66
1
  2
table_main
 10
672461.176088543
 20
8403663.681744568
 30
0.0
  0
ATTRIB
  5
32B
330
17
100
AcDbEntity
  8
0
100
AcDbText
 10
672461.676088543
 20
8403663.781744568
 30
0.0
 40
0.05
  1
0
 11
672461.676088543
 21
8403663.781744568
 31
0.0
100
AcDbAttribute
  2
BLOCK_ID
 70
1
  0
ATTRIB
  5
32C
330
17
100
AcDbEntity
  8
0
100
AcDbText
 10
672461.676088543
 20
8403663.881744567
 30
0.0
 40
0.05
  1
TR187-T0
 11
672461.676088543
 21
8403663.881744567
 31
0.0
100
AcDbAttribute
  2
ID
 70
1
  0
SEQEND
  5
32A
330
329
100
AcDbEntity
  8
APV - PV Tables
  0
INSERT
  5
32D
330
17
100
AcDbEntity
  8
APV - PV Tables
100
AcDbBlockReference
 66
1
  2
table_main
 10
672466.176088543
 20
8403663.681744568
 30
0.0
  0
ATTRIB
  5
32F
330
17
100
AcDbEntity
  8
0
100
AcDbText
 10
672466.676088543
 20
8403663.781744568
 30
0.0
 40
0.05
  1
0
 11
672466.676088543
 21
8403663.781744568
 31
0.0
100
AcDbAttribute
  2
BLOCK_ID
 70
1
  0
ATTRIB
  5
330
330
17
100
AcDbEntity
  8
0
100
AcDbText
 10
672466.676088543
 20
8403663.881744567
 30
0.0
 40
0.05
  1
TR188-T0
 11
672466.676088543
 21
8403663.881744567
 31
0.0
100
AcDbAttribute
  2
ID
 70
1
  0
SEQEND
  5
32E
330
32D
100
AcDbEntity
  8
APV - PV Tables
  0
INSERT
  5
331
330
17
100
AcDbEntity
  8
APV - PV Tables
100
AcDbBlockReference
 66
1
  2
table_main
 10
672471.176088543
 20
8403663.681744568
 30
0.0
  0
ATTRIB
  5
333
330
17
100
AcDbEntity
  8
0
100
AcDbText
 10
672471.676088543
 20
8403663.781744568
 30
0.0
 40
0.05
  1
0
 11
672471.676088543
 21
8403663.781744568
 31
0.0
100
AcDbAttribute
  2
BLOCK_ID
 70
1
  0
ATTRIB
  5
334
330
17
100
AcDbEntity
  8
0
100
AcDbText
 10
672471.676088543
 20
8403663.881744567
 30
0.0
 40
0.05
  1
TR189-T0
 11
672471.676088543
 21
8403663.881744567
 31
0.0
100
AcDbAttribute
  2
ID
 70
1
  0
SEQEND
  5
332
330
331
100
AcDbEntity
  8
APV - PV Tables
  0
INSERT
  5
335
330
17
100
AcDbEntity
  8
APV - PV Tables
100
AcDbBlockReference
 66
1
  2
table_main
 10
672476.176088543
 20
8403663.681744568
 30
0.0
  0
ATTRIB
  5
337
330
17
100
AcDbEntity
  8
0
100
AcDbText
 10
672476.676088543
 20
8403663.781744568
 30
0.0
 40
0.05
  1
0
 11
672476.676088543
 21
8403663.781744568
 31
0.0
100
AcDbAttribute
  2
BLOCK_ID
 70
1
  0
ATTRIB
  5
338
330
17
100
AcDbEntity
  8
0
100
AcDbText
 10
672476.676088543
 20
8403663.881744567
 30
0.0
 40
0.05
  1
TR190-T0
 11
672476.676088543
 21
8403663.881744567
 31
0.0
100
AcDbAttribute
  2
ID
 70
1
  0
SEQEND
  5
336
330
335
100
AcDbEntity
  8
APV - PV Tables
  0
INSERT
  5
339
330
17
100
AcDbEntity
  8
APV - PV Tables
100
AcDbBlockReference
 66
1
  2
table_main
 10
672481.176088543
 20
8403663.681744568
 30
0.0
  0
ATTRIB
  5
33B
330
17
100
AcDbEntity
  8
0
100
AcDbText
 10
672481.676088543
 20
8403663.781744568
 30
0.0
 40
0.05
  1
0
 11
672481.676088543
 21
8403663.781744568
 31
0.0
100
AcDbAttribute
  2
BLOCK_ID
 70
1
  0
ATTRIB
  5
33C
330
17
100
AcDbEntity
  8
0
100
AcDbText
 10
672481.676088543
 20
8403663.881744567
 30
0.0
 40
0.05
  1
TR191-T0
 11
672481.676088543
 21
8403663.881744567
 31
0.0
100
AcDbAttribute
  2
ID
 70
1
  0
SEQEND
  5
33A
330
339
100
AcDbEntity
  8
APV - PV Tables
  0
INSERT
  5
33D
330
17
100
AcDbEntity
  8
APV - PV Tables
100
AcDbBlockReference
 66
1
  2
table_main
 10
672486.176088543
 20
8403663.681744568
 30
0.0
  0
ATTRIB
  5
33F
330
17
100
AcDbEntity
  8
0
100
AcDbText
 10
672486.676088543
 20
8403663.781744568
 30
0.0
 40
0.05
  1
0
 11
672486.676088543
 21
8403663.781744568
 31
0.0
100
AcDbAttribute
  2
BLOCK_ID
 70
1
  0
ATTRIB
  5
340
330
17
100
AcDbEntity
  8
0
100
AcDbText
 10
672486.676088543
 20
8403663.881744567
 30
0.0
 40
0.05
  1
TR192-T0
 11
672486.676088543
 21
8403663.881744567
 31
0.0
100
AcDbAttribute
  2
ID
 70
1
  0
SEQEND
  5
33E
330
33D
100
AcDbEntity
  8
APV - PV Tables
  0
INSERT
  5
341
330
17
100
AcDbEntity
  8
APV - PV Tables
100
AcDbBlockReference
 66
1
  2
table_main
 10
672491.176088543
 20
8403663.681744568
 30
0.0
  0
ATTRIB
  5
343
330
17
100
AcDbEntity
  8
0
100
AcDbText
 10
672491.676088543
 20
8403663.781744568
 30
0.0
 40
0.05
  1
0
 11
672491.676088543
 21
8403663.781744568
 31
0.0
100
AcDbAttribute
  2
BLOCK_ID
 70
1
  0
ATTRIB
  5
344
330
17
100
AcDbEntity
  8
0
100
AcDbText
 10
672491.676088543
 20
8403663.881744567
 30
0.0
 40
0.05
  1
TR193-T0
 11
672491.676088543
 21
8403663.881744567
 31
0.0
100
AcDbAttribute
  2
ID
 70
1
  0
SEQEND
  5
342
330
341
100
AcDbEntity
  8
APV - PV Tables
  0
INSERT
  5
345
330
17
100
AcDbEntity
  8
APV - PV Tables
100
AcDbBlockReference
 66
1
  2
table_main
 10
672496.176088543
 20
8403663.681744568
 30
0.0
  0
ATTRIB
  5
347
330
17
100
AcDbEntity
  8
0
100
AcDbText
 10
672496.676088543
 20
8403663.781744568
 30
0.0
 40
0.05
  1
0
 11
672496.676088543
 21
8403663.781744568
 31
0.0
100
AcDbAttribute
  2
BLOCK_ID
 70
1
  0
ATTRIB
  5
348
330
17
100
AcDbEntity
  8
0
100
AcDbText
 10
672496.676088543
 20
8403663.881744567
 30
0.0
 40
0.05
  1
TR194-T0
 11
672496.676088543
 21
8403663.881744567
 31
0.0
100
AcDbAttribute
  2
ID
 70
1
  0
SEQEND
  5
346
330
345
100
AcDbEntity
  8
APV - PV Tables
  0
INSERT
  5
349
330
17
100
AcDbEntity
  8
APV - PV Tables
100
AcDbBlockReference
 66
1
  2
table_main
 10
672501.176088543
 20
8403663.681744568
 30
0.0
  0
ATTRIB
  5
34B
330
17
100
AcDbEntity
  8
0
100
AcDbText
 10
672501.676088543
 20
8403663.781744568
 30
0.0
 40
0.05
  1
0
 11
672501.676088543
 21
8403663.781744568
 31
0.0
100
AcDbAttribute
  2
BLOCK_ID
 70
1
  0
ATTRIB
  5
34C
330
17
100
AcDbEntity
  8
0
100
AcDbText
 10
672501.676088543
 20
8403663.881744567
 30
0.0
 40
0.05
  1
TR195-T0
 11
672501.676088543
 21
8403663.881744567
 31
0.0
100
AcDbAttribute
  2
ID
 70
1
  0
SEQEND
  5
34A
330
349
100
AcDbEntity
  8
APV - PV Tables
  0
INSERT
  5
34D
330
17
100
AcDbEntity
  8
APV - PV Tables
100
AcDbBlockReference
 66
1
  2
table_main
 10
672506.176088543
 20
8403663.681744568
 30
0.0
  0
ATTRIB
  5
34F
330
17
100
AcDbEntity
  8
0
100
AcDbText
 10
672506.676088543
 20
8403663.781744568
 30
0.0
 40
0.05
  1
0
 11
672506.676088543
 21
8403663.781744568
 31
0.0
100
AcDbAttribute
  2
BLOCK_ID
 70
1
  0
ATTRIB
  5
350
330
17
100
AcDbEntity
  8
0
100
AcDbText
 10
672506.676088543
 20
8403663.881744567
 30
0.0
 40
0.05
  1
TR196-T0
 11
672506.676088543
 21
8403663.881744567
 31
0.0
100
AcDbAttribute
  2
ID
 70
1
  0
SEQEND
  5
34E
330
34D
100
AcDbEntity
  8
APV - PV Tables
  0
INSERT
  5
351
330
17
100
AcDbEntity
  8
APV - PV Tables
100
AcDbBlockReference
 66
1
  2
table_main
 10
672511.176088543
 20
8403663.681744568
 30
0.0
  0
ATTRIB
  5
353
330
17
100
AcDbEntity
  8
0
100
AcDbText
 10
672511.676088543
 20
8403663.781744568
 30
0.0
 40
0.05
  1
0
 11
672511.676088543
 21
8403663.781744568
 31
0.0
100
AcDbAttribute
  2
BLOCK_ID
 70
1
  0
ATTRIB
  5
354
330
17
100
AcDbEntity
  8
0
100
AcDbText
 10
672511.676088543
 20
8403663.881744567
 30
0.0
 40
0.05
  1
TR197-T0
 11
672511.676088543
 21
8403663.881744567
 31
0.0
100
AcDbAttribute
  2
ID
 70
1
  0
SEQEND
  5
352
330
351
100
AcDbEntity
  8
APV - PV Tables
  0
INSERT
  5
355
330
17
100
AcDbEntity
  8
APV - PV Tables
100
AcDbBlockReference
 66
1
  2
table_main
 10
672516.176088543
 20
8403663.681744568
 30
0.0
  0
ATTRIB
  5
357
330
17
100
AcDbEntity
  8
0
100
AcDbText
 10
672516.676088543
 20
8403663.781744568
 30
0.0
 40
0.05
  1
0
 11
672516.676088543
 21
8403663.781744568
 31
0.0
100
AcDbAttribute
  2
BLOCK_ID
 70
1
  0
ATTRIB
  5
358
330
17
100
AcDbEntity
  8
0
100
AcDbText
 10
672516.676088543
 20
8403663.881744567
 30
0.0
 40
0.05
  1
TR198-T0
 11
672516.676088543
 21
8403663.881744567
 31
0.0
100
AcDbAttribute
  2
ID
 70
1
  0
SEQEND
  5
356
330
355
100
AcDbEntity
  8
APV - PV Tables
  0
INSERT
  5
359
330
17
100
AcDbEntity
  8
APV - PV Tables
100
AcDbBlockReference
 66
1
  2
table_main
 10
672521.176088543
 20
8403663.681744568
 30
0.0
  0
ATTRIB
  5
35B
330
17
100
AcDbEntity
  8
0
100
AcDbText
 10
672521.676088543
 20
8403663.781744568
 30
0.0
 40
0.05
  1
0
 11
672521.676088543
 21
8403663.781744568
 31
0.0
100
AcDbAttribute
  2
BLOCK_ID
 70
1
  0
ATTRIB
  5
35C
330
17
100
AcDbEntity
  8
0
100
AcDbText
 10
672521.676088543
 20
8403663.881744567
 30
0.0
 40
0.05
  1
TR199-T0
 11
672521.676088543
 21
8403663.881744567
 31
0.0
100
AcDbAttribute
  2
ID
 70
1
  0
SEQEND
  5
35A
330
359
100
AcDbEntity
  8
APV - PV Tables
  0
INSERT
  5
35D
330
17
100
AcDbEntity
  8
APV - PV Tables
100
AcDbBlockReference
 66
1
  2
table_main
 10
672526.176088543
 20
8403663.681744568
 30
0.0
  0
ATTRIB
  5
35F
330
17
100
AcDbEntity
  8
0
100
AcDbText
 10
672526.676088543
 20
8403663.781744568
 30
0.0
 40
0.05
  1
0
 11
672526.676088543
 21
8403663.781744568
 31
0.0
100
AcDbAttribute
  2
BLOCK_ID
 70
1
  0
ATTRIB
  5
360
330
17
100
AcDbEntity
  8
0
100
AcDbText
 10
672526.676088543
 20
8403663.881744567
 30
0.0
 40
0.05
  1
TR200-T0
 11
672526.676088543
 21
8403663.881744567
 31
0.0
100
AcDbAttribute
  2
ID
 70
1
  0
SEQEND
  5
35E
330
35D
100
AcDbEntity
  8
APV - PV Tables
  0
INSERT
  5
361
330
17
100
AcDbEntity
  8
APV - PV Tables
100
AcDbBlockReference
 66
1
  2
table_main
 10
672531.176088543
 20
8403663.681744568
 30
0.0
  0
ATTRIB
  5
363
330
17
100
AcDbEntity
  8
0
100
AcDbText
 10
672531.676088543
 20
8403663.781744568
 30
0.0
 40
0.05
  1
0
 11
672531.676088543
 21
8403663.781744568
 31
0.0
100
AcDbAttribute
  2
BLOCK_ID
 70
1
  0
ATTRIB
  5
364
330
17
100
AcDbEntity
  8
0
100
AcDbText
 10
672531.676088543
 20
8403663.881744567
 30
0.0
 40
0.05
  1
TR201-T0
 11
672531.676088543
 21
8403663.881744567
 31
0.0
100
AcDbAttribute
  2
ID
 70
1
  0
SEQEND
  5
362
330
361
100
AcDbEntity
  8
APV - PV Tables
  0
INSERT
  5
365
330
17
100
AcDbEntity
  8
APV - PV Tables
100
AcDbBlockReference
 66
1
  2
table_main
 10
672536.176088543
 20
8403663.681744568
 30
0.0
  0
ATTRIB
  5
367
330
17
100
AcDbEntity
  8
0
100
AcDbText
 10
672536.676088543
 20
8403663.781744568
 30
0.0
 40
0.05
  1
0
 11
672536.676088543
 21
8403663.781744568
 31
0.0
100
AcDbAttribute
  2
BLOCK_ID
 70
1
  0
ATTRIB
  5
368
330
17
100
AcDbEntity
  8
0
100
AcDbText
 10
672536.676088543
 20
8403663.881744567
 30
0.0
 40
0.05
  1
TR202-T0
 11
672536.676088543
 21
8403663.881744567
 31
0.0
100
AcDbAttribute
  2
ID
 70
1
  0
SEQEND
  5
366
330
365
100
AcDbEntity
  8
APV - PV Tables
  0
INSERT
  5
369
330
17
100
AcDbEntity
  8
APV - PV Tables
100
AcDbBlockReference
 66
1
  2
table_main
 10
672541.176088543
 20
8403663.681744568
 30
0.0
  0
ATTRIB
  5
36B
330
17
100
AcDbEntity
  8
0
100
AcDbText
 10
672541.676088543
 20
8403663.781744568
 30
0.0
 40
0.05
  1
0
 11
672541.676088543
 21
8403663.781744568
 31
0.0
100
AcDbAttribute
  2
BLOCK_ID
 70
1
  0
ATTRIB
  5
36C
330
17
100
AcDbEntity
  8
0
100
AcDbText
 10
672541.676088543
 20
8403663.881744567
 30
0.0
 40
0.05
  1
TR203-T0
 11
672541.676088543
 21
8403663.881744567
 31
0.0
100
AcDbAttribute
  2
ID
 70
1
  0
SEQEND
  5
36A
330
369
100
AcDbEntity
  8
APV - PV Tables
  0
INSERT
  5
36D
330
17
100
AcDbEntity
  8
APV - PV Tables
100
AcDbBlockReference
 66
1
  2
table_main
 10
672546.176088543
 20
8403663.681744568
 30
0.0
  0
ATTRIB
  5
36F
330
17
100
AcDbEntity
  8
0
100
AcDbText
 10
672546.676088543
 20
8403663.781744568
 30
0.0
 40
0.05
  1
0
 11
672546.676088543
 21
8403663.781744568
 31
0.0
100
AcDbAttribute
  2
BLOCK_ID
 70
1
  0
ATTRIB
  5
370
330
17
100
AcDbEntity
  8
0
100
AcDbText
 10
672546.676088543
 20
8403663.881744567
 30
0.0
 40
0.05
  1
TR204-T0
 11
672546.676088543
 21
8403663.881744567
 31
0.0
100
AcDbAttribute
  2
ID
 70
1
  0
SEQEND
  5
36E
330
36D
100
AcDbEntity
  8
APV - PV Tables
  0
INSERT
  5
371
330
17
100
AcDbEntity
  8
APV - PV Tables
100
AcDbBlockReference
 66
1
  2
table_main
 10
672551.176088543
 20
8403663.681744568
 30
0.0
  0
ATTRIB
  5
373
330
17
100
AcDbEntity
  8
0
100
AcDbText
 10
672551.676088543
 20
8403663.781744568
 30
0.0
 40
0.05
  1
0
 11
672551.676088543
 21
8403663.781744568
 31
0.0
100
AcDbAttribute
  2
BLOCK_ID
 70
1
  0
ATTRIB
  5
374
330
17
100
AcDbEntity
  8
0
100
AcDbText
 10
672551.676088543
 20
8403663.881744567
 30
0.0
 40
0.05
  1
TR205-T0
 11
672551.676088543
 21
8403663.881744567
 31
0.0
100
AcDbAttribute
  2
ID
 70
1
  0
SEQEND
  5
372
330
371
100
AcDbEntity
  8
APV - PV Tables
  0
INSERT
  5
375
330
17
100
AcDbEntity
  8
APV - PV Tables
100
AcDbBlockReference
 66
1
  2
table_main
 10
672556.176088543
 20
8403663.681744568
 30
0.0
  0
ATTRIB
  5
377
330
17
100
AcDbEntity
  8
0
100
AcDbText
 10
672556.676088543
 20
8403663.781744568
 30
0.0
 40
0.05
  1
0
 11
672556.676088543
 21
8403663.781744568
 31
0.0
100
AcDbAttribute
  2
BLOCK_ID
 70
1
  0
ATTRIB
  5
378
330
17
100
AcDbEntity
  8
0
100
AcDbText
 10
672556.676088543
 20
8403663.881744567
 30
0.0
 40
0.05
  1
TR206-T0
 11
672556.676088543
 21
8403663.881744567
 31
0.0
100
AcDbAttribute
  2
ID
 70
1
  0
SEQEND
  5
376
330
375
100
AcDbEntity
  8
APV - PV Tables
  0
INSERT
  5
379
330
17
100
AcDbEntity
  8
APV - PV Tables
100
AcDbBlockReference
 66
1
  2
table_main
 10
672561.176088543
 20
8403663.681744568
 30
0.0
  0
ATTRIB
  5
37B
330
17
100
AcDbEntity
  8
0
100
AcDbText
 10
672561.676088543
 20
8403663.781744568
 30
0.0
 40
0.05
  1
0
 11
672561.676088543
 21
8403663.781744568
 31
0.0
100
AcDbAttribute
  2
BLOCK_ID
 70
1
  0
ATTRIB
  5
37C
330
17
100
AcDbEntity
  8
0
100
AcDbText
 10
672561.676088543
 20
8403663.881744567
 30
0.0
 40
0.05
  1
TR207-T0
 11
672561.676088543
 21
8403663.881744567
 31
0.0
100
AcDbAttribute
  2
ID
 70
1
  0
SEQEND
  5
37A
330
379
100
AcDbEntity
  8
APV - PV Tables
  0
INSERT
  5
37D
330
17
100
AcDbEntity
  8
APV - PV Tables
100
AcDbBlockReference
 66
1
  2
table_main
 10
672566.176088543
 20
8403663.681744568
 30
0.0
  0
ATTRIB
  5
37F
330
17
100
AcDbEntity
  8
0
100
AcDbText
 10
672566.676088543
 20
8403663.781744568
 30
0.0
 40
0.05
  1
0
 11
672566.676088543
 21
8403663.781744568
 31
0.0
100
AcDbAttribute
  2
BLOCK_ID
 70
1
  0
ATTRIB
  5
380
330
17
100
AcDbEntity
  8
0
100
AcDbText
 10
672566.676088543
 20
8403663.881744567
 30
0.0
 40
0.05
  1
TR208-T0
 11
672566.676088543
 21
8403663.881744567
 31
0.0
100
AcDbAttribute
  2
ID
 70
1
  0
SEQEND
  5
37E
330
37D
100
AcDbEntity
  8
APV - PV Tables
  0
INSERT
  5
381
330
17
100
AcDbEntity
  8
APV - PV Tables
100
AcDbBlockReference
 66
1
  2
table_main
 10
672571.176088543
 20
8403663.681744568
 30
0.0
  0
ATTRIB
  5
383
330
17
100
AcDbEntity
  8
0
100
AcDbText
 10
672571.676088543
 20
8403663.781744568
 30
0.0
 40
0.05
  1
0
 11
672571.676088543
 21
8403663.781744568
 31
0.0
100
AcDbAttribute
  2
BLOCK_ID
 70
1
  0
ATTRIB
  5
384
330
17
100
AcDbEntity
  8
0
100
AcDbText
 10
672571.676088543
 20
8403663.881744567
 30
0.0
 40
0.05
  1
TR209-T0
 11
672571.676088543
 21
8403663.881744567
 31
0.0
100
AcDbAttribute
  2
ID
 70
1
  0
SEQEND
  5
382
330
381
100
AcDbEntity
  8
APV - PV Tables
  0
INSERT
  5
385
330
17
100
AcDbEntity
  8
APV - PV Tables
100
AcDbBlockReference
 66
1
  2
table_main
 10
672421.176088543
 20
8403780.597744567
 30
0.0
  0
ATTRIB
  5
387
330
17
100
AcDbEntity
  8
0
100
AcDbText
 10
672421.676088543
 20
8403780.697744567
 30
0.0
 40
0.05
  1
0
 11
672421.676088543
 21
8403780.697744567
 31
0.0
100
AcDbAttribute
  2
BLOCK_ID
 70
1
  0
ATTRIB
  5
388
330
17
100
AcDbEntity
  8
0
100
AcDbText
 10
672421.676088543
 20
8403780.797744567
 30
0.0
 40
0.05
  1
TR210-T0
 11
672421.676088543
 21
8403780.797744567
 31
0.0
100
AcDbAttribute
  2
ID
 70
1
  0
SEQEND
  5
386
330
385
100
AcDbEntity
  8
APV - PV Tables
  0
INSERT
  5
389
330
17
100
AcDbEntity
  8
APV - PV Tables
100
AcDbBlockReference
 66
1
  2
table_main
 10
672426.176088543
 20
8403780.597744567
 30
0.0
  0
ATTRIB
  5
38B
330
17
100
AcDbEntity
  8
0
100
AcDbText
 10
672426.676088543
 20
8403780.697744567
 30
0.0
 40
0.05
  1
0
 11
672426.676088543
 21
8403780.697744567
 31
0.0
100
AcDbAttribute
  2
BLOCK_ID
 70
1
  0
ATTRIB
  5
38C
330
17
100
AcDbEntity
  8
0
100
AcDbText
 10
672426.676088543
 20
8403780.797744567
 30
0.0
 40
0.05
  1
TR211-T0
 11
672426.676088543
 21
8403780.797744567
 31
0.0
100
AcDbAttribute
  2
ID
 70
1
  0
SEQEND
  5
38A
330
389
100
AcDbEntity
  8
APV - PV Tables
  0
INSERT
  5
38D
330
17
100
AcDbEntity
  8
APV - PV Tables
100
AcDbBlockReference
 66
1
  2
table_main
 10
672431.176088543
 20
8403780.597744567
 30
0.0
  0
ATTRIB
  5
38F
330
17
100
AcDbEntity
  8
0
100
AcDbText
 10
672431.676088543
 20
8403780.697744567
 30
0.0
 40
0.05
  1
0
 11
672431.676088543
 21
8403780.697744567
 31
0.0
100
AcDbAttribute
  2
BLOCK_ID
 70
1
  0
ATTRIB
  5
390
330
17
100
AcDbEntity
  8
0
100
AcDbText
 10
672431.676088543
 20
8403780.797744567
 30
0.0
 40
0.05
  1
TR212-T0
 11
672431.676088543
 21
8403780.797744567
 31
0.0
100
AcDbAttribute
  2
ID
 70
1
  0
SEQEND
  5
38E
330
38D
100
AcDbEntity
  8
APV - PV Tables
  0
INSERT
  5
391
330
17
100
AcDbEntity
  8
APV - PV Tables
100
AcDbBlockReference
 66
1
  2
table_main
 10
672436.176088543
 20
8403780.597744567
 30
0.0
  0
ATTRIB
  5
393
330
17
100
AcDbEntity
  8
0
100
AcDbText
 10
672436.676088543
 20
8403780.697744567
 30
0.0
 40
0.05
  1
0
 11
672436.676088543
 21
8403780.697744567
 31
0.0
100
AcDbAttribute
  2
BLOCK_ID
 70
1
  0
ATTRIB
  5
394
330
17
100
AcDbEntity
  8
0
100
AcDbText
 10
672436.676088543
 20
8403780.797744567
 30
0.0
 40
0.05
  1
TR213-T0
 11
672436.676088543
 21
8403780.797744567
 31
0.0
100
AcDbAttribute
  2
ID
 70
1
  0
SEQEND
  5
392
330
391
100
AcDbEntity
  8
APV - PV Tables
  0
INSERT
  5
395
330
17
100
AcDbEntity
  8
APV - PV Tables
100
AcDbBlockReference
 66
1
  2
table_main
 10
672441.176088543
 20
8403780.597744567
 30
0.0
  0
ATTRIB
  5
397
330
17
100
AcDbEntity
  8
0
100
AcDbText
 10
672441.676088543
 20
8403780.697744567
 30
0.0
 40
0.05
  1
0
 11
672441.676088543
 21
8403780.697744567
 31
0.0
100
AcDbAttribute
  2
BLOCK_ID
 70
1
  0
ATTRIB
  5
398
330
17
100
AcDbEntity
  8
0
100
AcDbText
 10
672441.676088543
 20
8403780.797744567
 30
0.0
 40
0.05
  1
TR214-T0
 11
672441.676088543
 21
8403780.797744567
 31
0.0
100
AcDbAttribute
  2
ID
 70
1
  0
SEQEND
  5
396
330
395
100
AcDbEntity
  8
APV - PV Tables
  0
INSERT
  5
399
330
17
100
AcDbEntity
  8
APV - PV Tables
100
AcDbBlockReference
 66
1
  2
table_main
 10
672446.176088543
 20
8403780.597744567
 30
0.0
  0
ATTRIB
  5
39B
330
17
100
AcDbEntity
  8
0
100
AcDbText
 10
672446.676088543
 20
8403780.697744567
 30
0.0
 40
0.05
  1
0
 11
672446.676088543
 21
8403780.697744567
 31
0.0
100
AcDbAttribute
  2
BLOCK_ID
 70
1
  0
ATTRIB
  5
39C
330
17
100
AcDbEntity
  8
0
100
AcDbText
 10
672446.676088543
 20
8403780.797744567
 30
0.0
 40
0.05
  1
TR215-T0
 11
672446.676088543
 21
8403780.797744567
 31
0.0
100
AcDbAttribute
  2
ID
 70
1
  0
SEQEND
  5
39A
330
399
100
AcDbEntity
  8
APV - PV Tables
  0
INSERT
  5
39D
330
17
100
AcDbEntity
  8
APV - PV Tables
100
AcDbBlockReference
 66
1
  2
table_main
 10
672451.176088543
 20
8403780.597744567
 30
0.0
  0
ATTRIB
  5
39F
330
17
100
AcDbEntity
  8
0
100
AcDbText
 10
672451.676088543
 20
8403780.697744567
 30
0.0
 40
0.05
  1
0
 11
672451.676088543
 21
8403780.697744567
 31
0.0
100
AcDbAttribute
  2
BLOCK_ID
 70
1
  0
ATTRIB
  5
3A0
330
17
100
AcDbEntity
  8
0
100
AcDbText
 10
672451.676088543
 20
8403780.797744567
 30
0.0
 40
0.05
  1
TR216-T0
 11
672451.676088543
 21
8403780.797744567
 31
0.0
100
AcDbAttribute
  2
ID
 70
1
  0
SEQEND
  5
39E
330
39D
100
AcDbEntity
  8
APV - PV Tables
  0
INSERT
  5
3A1
330
17
100
AcDbEntity
  8
APV - PV Tables
100
AcDbBlockReference
 66
1
  2
table_main
 10
672456.176088543
 20
8403780.597744567
 30
0.0
  0
ATTRIB
  5
3A3
330
17
100
AcDbEntity
  8
0
100
AcDbText
 10
672456.676088543
 20
8403780.697744567
 30
0.0
 40
0.05
  1
0
 11
672456.676088543
 21
8403780.697744567
 31
0.0
100
AcDbAttribute
  2
BLOCK_ID
 70
1
  0
ATTRIB
  5
3A4
330
17
100
AcDbEntity
  8
0
100
AcDbText
 10
672456.676088543
 20
8403780.797744567
 30
0.0
 40
0.05
  1
TR217-T0
 11
672456.676088543
 21
8403780.797744567
 31
0.0
100
AcDbAttribute
  2
ID
 70
1
  0
SEQEND
  5
3A2
330
3A1
100
AcDbEntity
  8
APV - PV Tables
  0
INSERT
  5
3A5
330
17
100
AcDbEntity
  8
APV - PV Tables
100
AcDbBlockReference
 66
1
  2
table_main
 10
672461.176088543
 20
8403780.597744567
 30
0.0
  0
ATTRIB
  5
3A7
330
17
100
AcDbEntity
  8
0
100
AcDbText
 10
672461.676088543
 20
8403780.697744567
 30
0.0
 40
0.05
  1
0
 11
672461.676088543
 21
8403780.697744567
 31
0.0
100
AcDbAttribute
  2
BLOCK_ID
 70
1
  0
ATTRIB
  5
3A8
330
17
100
AcDbEntity
  8
0
100
AcDbText
 10
672461.676088543
 20
8403780.797744567
 30
0.0
 40
0.05
  1
TR218-T0
 11
672461.676088543
 21
8403780.797744567
 31
0.0
100
AcDbAttribute
  2
ID
 70
1
  0
SEQEND
  5
3A6
330
3A5
100
AcDbEntity
  8
APV - PV Tables
  0
INSERT
  5
3A9
330
17
100
AcDbEntity
  8
APV - PV Tables
100
AcDbBlockReference
 66
1
  2
table_main
 10
672466.176088543
 20
8403780.597744567
 30
0.0
  0
ATTRIB
  5
3AB
330
17
100
AcDbEntity
  8
0
100
AcDbText
 10
672466.676088543
 20
8403780.697744567
 30
0.0
 40
0.05
  1
0
 11
672466.676088543
 21
8403780.697744567
 31
0.0
100
AcDbAttribute
  2
BLOCK_ID
 70
1
  0
ATTRIB
  5
3AC
330
17
100
AcDbEntity
  8
0
100
AcDbText
 10
672466.676088543
 20
8403780.797744567
 30
0.0
 40
0.05
  1
TR219-T0
 11
672466.676088543
 21
8403780.797744567
 31
0.0
100
AcDbAttribute
  2
ID
 70
1
  0
SEQEND
  5
3AA
330
3A9
100
AcDbEntity
  8
APV - PV Tables
  0
INSERT
  5
3AD
330
17
100
AcDbEntity
  8
APV - PV Tables
100
AcDbBlockReference
 66
1
  2
table_main
 10
672471.176088543
 20
8403780.597744567
 30
0.0
  0
ATTRIB
  5
3AF
330
17
100
AcDbEntity
  8
0
100
AcDbText
 10
672471.676088543
 20
8403780.697744567
 30
0.0
 40
0.05
  1
0
 11
672471.676088543
 21
8403780.697744567
 31
0.0
100
AcDbAttribute
  2
BLOCK_ID
 70
1
  0
ATTRIB
  5
3B0
330
17
100
AcDbEntity
  8
0
100
AcDbText
 10
672471.676088543
 20
8403780.797744567
 30
0.0
 40
0.05
  1
TR220-T0
 11
672471.676088543
 21
8403780.797744567
 31
0.0
100
AcDbAttribute
  2
ID
 70
1
  0
SEQEND
  5
3AE
330
3AD
100
AcDbEntity
  8
APV - PV Tables
  0
INSERT
  5
3B1
330
17
100
AcDbEntity
  8
APV - PV Tables
100
AcDbBlockReference
 66
1
  2
table_main
 10
672476.176088543
 20
8403780.597744567
 30
0.0
  0
ATTRIB
  5
3B3
330
17
100
AcDbEntity
  8
0
100
AcDbText
 10
672476.676088543
 20
8403780.697744567
 30
0.0
 40
0.05
  1
0
 11
672476.676088543
 21
8403780.697744567
 31
0.0
100
AcDbAttribute
  2
BLOCK_ID
 70
1
  0
ATTRIB
  5
3B4
330
17
100
AcDbEntity
  8
0
100
AcDbText
 10
672476.676088543
 20
8403780.797744567
 30
0.0
 40
0.05
  1
TR221-T0
 11
672476.676088543
 21
8403780.797744567
 31
0.0
100
AcDbAttribute
  2
ID
 70
1
  0
SEQEND
  5
3B2
330
3B1
100
AcDbEntity
  8
APV - PV Tables
  0
INSERT
  5
3B5
330
17
100
AcDbEntity
  8
APV - PV Tables
100
AcDbBlockReference
 66
1
  2
table_main
 10
672481.176088543
 20
8403780.597744567
 30
0.0
  0
ATTRIB
  5
3B7
330
17
100
AcDbEntity
  8
0
100
AcDbText
 10
672481.676088543
 20
8403780.697744567
 30
0.0
 40
0.05
  1
0
 11
672481.676088543
 21
8403780.697744567
 31
0.0
100
AcDbAttribute
  2
BLOCK_ID
 70
1
  0
ATTRIB
  5
3B8
330
17
100
AcDbEntity
  8
0
100
AcDbText
 10
672481.676088543
 20
8403780.797744567
 30
0.0
 40
0.05
  1
TR222-T0
 11
672481.676088543
 21
8403780.797744567
 31
0.0
100
AcDbAttribute
  2
ID
 70
1
  0
SEQEND
  5
3B6
330
3B5
100
AcDbEntity
  8
APV - PV Tables
  0
INSERT
  5
3B9
330
17
100
AcDbEntity
  8
APV - PV Tables
100
AcDbBlockReference
 66
1
  2
table_main
 10
672486.176088543
 20
8403780.597744567
 30
0.0
  0
ATTRIB
  5
3BB
330
17
100
AcDbEntity
  8
0
100
AcDbText
 10
672486.676088543
 20
8403780.697744567
 30
0.0
 40
0.05
  1
0
 11
672486.676088543
 21
8403780.697744567
 31
0.0
100
AcDbAttribute
  2
BLOCK_ID
 70
1
  0
ATTRIB
  5
3BC
330
17
100
AcDbEntity
  8
0
100
AcDbText
 10
672486.676088543
 20
8403780.797744567
 30
0.0
 40
0.05
  1
TR223-T0
 11
672486.676088543
 21
8403780.797744567
 31
0.0
100
AcDbAttribute
  2
ID
 70
1
  0
SEQEND
  5
3BA
330
3B9
100
AcDbEntity
  8
APV - PV Tables
  0
ENDSEC
  0
SECTION
  2
OBJECTS
  0
DICTIONARY
  5
A
330
0
100
AcDbDictionary
280
0
281
1
  3
ACAD_COLOR
350
B
  3
ACAD_GROUP
350
C
  3
ACAD_LAYOUT
350
D
  3
ACAD_MATERIAL
350
E
  3
ACAD_MLEADERSTYLE
350
F
  3
ACAD_MLINESTYLE
350
10
  3
ACAD_PLOTSETTINGS
350
11
  3
ACAD_PLOTSTYLENAME
350
12
  3
ACAD_SCALELIST
350
14
  3
ACAD_TABLESTYLE
350
15
  3
ACAD_VISUALSTYLE
350
16
  3
EZDXF_META
350
2D
  0
DICTIONARY
  5
B
330
A
100
AcDbDictionary
280
0
281
1
  0
DICTIONARY
  5
C
330
A
100
AcDbDictionary
280
0
281
1
  0
DICTIONARY
  5
D
330
A
100
AcDbDictionary
280
0
281
1
  3
Model
350
1A
  3
Layout1
350
1E
  0
DICTIONARY
  5
E
330
A
100
AcDbDictionary
280
0
281
1
  3
ByBlock
350
1F
  3
ByLayer
350
20
  3
Global
350
21
  0
DICTIONARY
  5
F
330
A
100
AcDbDictionary
280
0
281
1
  3
Standard
350
2C
  0
DICTIONARY
  5
10
330
A
100
AcDbDictionary
280
0
281
1
  3
Standard
350
22
  0
DICTIONARY
  5
11
330
A
100
AcDbDictionary
280
0
281
1
  0
ACDBDICTIONARYWDFLT
  5
12
330
A
100
AcDbDictionary
280
0
281
1
  3
Normal
350
13
100
AcDbDictionaryWithDefault
340
13
  0
ACDBPLACEHOLDER
  5
13
330
12
  0
DICTIONARY
  5
14
330
A
100
AcDbDictionary
280
0
281
1
  0
DICTIONARY
  5
15
330
A
100
AcDbDictionary
280
0
281
1
  0
DICTIONARY
  5
16
330
A
100
AcDbDictionary
280
0
281
1
  0
LAYOUT
  5
1A
330
D
100
AcDbPlotSettings
  1

  2
Adobe PDF
  4
A3
  6

 40
7.5
 41
20.0
 42
7.5
 43
20.0
 44
420.0
 45
297.0
 46
0.0
 47
0.0
 48
0.0
 49
0.0
140
0.0
141
0.0
142
1.0
143
1.0
 70
1024
 72
1
 73
0
 74
5
  7

 75
16
 76
0
 77
2
 78
300
147
1.0
148
0.0
149
0.0
100
AcDbLayout
  1
Model
 70
1
 71
0
 10
0.0
 20
0.0
 11
420.0
 21
297.0
 12
0.0
 22
0.0
 32
0.0
 14
1e+20
 24
1e+20
 34
1e+20
 15
-1e+20
 25
-1e+20
 35
-1e+20
146
0.0
 13
0.0
 23
0.0
 33
0.0
 16
1.0
 26
0.0
 36
0.0
 17
0.0
 27
1.0
 37
0.0
 76
1
330
17
  0
LAYOUT
  5
1E
330
D
100
AcDbPlotSettings
  1

  2
Adobe PDF
  4
A3
  6

 40
7.5
 41
20.0
 42
7.5
 43
20.0
 44
420.0
 45
297.0
 46
0.0
 47
0.0
 48
0.0
 49
0.0
140
0.0
141
0.0
142
1.0
143
1.0
 70
0
 72
1
 73
0
 74
5
  7

 75
16
 76
0
 77
2
 78
300
147
1.0
148
0.0
149
0.0
100
AcDbLayout
  1
Layout1
 70
1
 71
1
 10
0.0
 20
0.0
 11
420.0
 21
297.0
 12
0.0
 22
0.0
 32
0.0
 14
1e+20
 24
1e+20
 34
1e+20
 15
-1e+20
 25
-1e+20
 35
-1e+20
146
0.0
 13
0.0
 23
0.0
 33
0.0
 16
1.0
 26
0.0
 36
0.0
 17
0.0
 27
1.0
 37
0.0
 76
1
330
1B
  0
MATERIAL
  5
1F
102
{ACAD_REACTORS
330
E
102
}
330
E
100
AcDbMaterial
  1
ByBlock
  2

 70
0
 40
1.0
 71
1
 41
1.0
 91
-1023410177
 42
1.0
 72
1
  3

 73
1
 74
1
 75
1
 44
0.5
 73
0
 45
1.0
 46
1.0
 77
1
  4

 78
1
 79
1
170
1
 48
1.0
171
1
  6

172
1
173
1
174
1
140
1.0
141
1.0
175
1
  7

176
1
177
1
178
1
143
1.0
179
1
  8

270
1
271
1
272
1
145
1.0
146
1.0
273
1
  9

274
1
275
1
276
1
 42
1.0
 72
1
  3

 73
1
 74
1
 75
1
 94
63
  0
MATERIAL
  5
20
102
{ACAD_REACTORS
330
E
102
}
330
E
100
AcDbMaterial
  1
ByLayer
  2

 70
0
 40
1.0
 71
1
 41
1.0
 91
-1023410177
 42
1.0
 72
1
  3

 73
1
 74
1
 75
1
 44
0.5
 73
0
 45
1.0
 46
1.0
 77
1
  4

 78
1
 79
1
170
1
 48
1.0
171
1
  6

172
1
173
1
174
1
140
1.0
141
1.0
175
1
  7

176
1
177
1
178
1
143
1.0
179
1
  8

270
1
271
1
272
1
145
1.0
146
1.0
273
1
  9

274
1
275
1
276
1
 42
1.0
 72
1
  3

 73
1
 74
1
 75
1
 94
63
  0
MATERIAL
  5
21
102
{ACAD_REACTORS
330
E
102
}
330
E
100
AcDbMaterial
  1
Global
  2

 70
0
 40
1.0
 71
1
 41
1.0
 91
-1023410177
 42
1.0
 72
1
  3

 73
1
 74
1
 75
1
 44
0.5
 73
0
 45
1.0
 46
1.0
 77
1
  4

 78
1
 79
1
170
1
 48
1.0
171
1
  6

172
1
173
1
174
1
140
1.0
141
1.0
175
1
  7

176
1
177
1
178
1
143
1.0
179
1
  8

270
1
271
1
272
1
145
1.0
146
1.0
273
1
  9

274
1
275
1
276
1
 42
1.0
 72
1
  3

 73
1
 74
1
 75
1
 94
63
  0
MLINESTYLE
  5
22
102
{ACAD_REACTORS
330
10
102
}
330
10
100
AcDbMlineStyle
  2
Standard
 70
0
  3

 62
256
 51
90.0
 52
90.0
 71
2
 49
0.5
 62
256
  6
BYLAYER
 49
-0.5
 62
256
  6
BYLAYER
  0
MLEADERSTYLE
  5
2C
102
{ACAD_REACTORS
330
F
102
}
330
F
100
AcDbMLeaderStyle
179
2
170
2
171
1
172
0
 90
2
 40
0.0
 41
0.0
173
1
 91
-1056964608
 92
-2
290
1
 42
2.0
291
1
 43
8.0
  3
Standard
 44
4.0
300

342
29
174
1
175
1
176
0
178
1
 93
-1056964608
 45
4.0
292
0
297
0
 46
4.0
 94
-1056964608
 47
1.0
 49
1.0
140
1.0
294
1
141
0.0
177
0
142
1.0
295
0
296
0
143
3.75
271
0
272
9
273
9
  0
DICTIONARY
  5
2D
330
A
100
AcDbDictionary
281
1
  3
CREATED_BY_EZDXF
350
2E
  3
WRITTEN_BY_EZDXF
350
3BF
  0
DICTIONARYVAR
  5
2E
330
2D
100
DictionaryVariables
280
0
  1
1.1.4 @ 2024-11-13T18:49:25.194773+00:00
  0
DICTIONARYVAR
  5
3BF
330
2D
100
DictionaryVariables
280
0
  1
1.1.4 @ 2024-11-13T18:49:25.223583+00:00
  0
ENDSEC
  0
EOF
